Song name
# A B C D E F G H I J K L M N O P Q R S T U V W X Y Z

Death From Above 1979 - My Love Is Shared tab

My Love is Shared - Death From Above 1979
*Bass tabs changed to guitar tabs*

e|----------------------------------------------------------|
B|------------------2-2-----------------2-2----0-0----------|
G|----------2-2---------------------------------------2--2--|
D|---4-4-------------------4-4---2-2------------------------|
A|----------------------------------------------------------|
E|----------------------------------------------------------|


e|----------------------------------------------------------|
B|----------------2--2------------------2--2---0-0----------|
G|------------------------2--2------------------------2--2--|
D|---0-0---4-4-------------------0-0------------------------|
A|----------------------------------------------------------|
E|----------------------------------------------------------|


e|--------------------------0--0----------------------------|
B|------------------2--2------------------2--2---0-0--------|
G|----------2--2----------------------------------------2--2|
D|---4-4---------------------------2-2----------------------|
A|----------------------------------------------------------|
E|----------------------------------------------------------|


e|-------------------------------------------------------|
B|----------------2--2-----------------------0-0---------|
G|------------------------2--2----------------------2--2-|
D|---0-0---4-4-------------------0-0---0-0---------------|
A|-------------------------------------------------------|
E|-------------------------------------------------------|

CHORUS
e|-----------------------------|
B|-----------------------------|
G|-----------------------------|
D|---4x22---2x22---------------|
A|-----------------2x22---4x12-|
E|-----------------------------|

END OF CHORUS/OUTRO

e|---------------------------------------------------------|
B|------------------2--2------------------------0-1-0------|
G|----------2--2------------2--2-------------------------2-|
D|---4-4---------------------------2-2---0-0---------------|
A|---------------------------------------------------------|
E|---------------------------------------------------------|

*Note: This tab is just a rewrite of the bass tab already posted, just done in a way to 
it easier for beginner guitarists, and less hand movement across the frets.*
Tap to rate this tab
# A B C D E F G H I J K L M N O P Q R S T U V W X Y Z