Song name
# A B C D E F G H I J K L M N O P Q R S T U V W X Y Z

Death Grips - Beware tab

This song is really simple but it kicks a** so I figured I would tab it real quick.

Death Grips - Beware
DROP D - DADGBE
The whole thing just kind of drones on an D5 chord

INTRO - Just mess around with this riff, listen to the song for rhythm or just wing it

E|----------------|------------------|
B|----------------|------------------|
G|----------------|------------------|
D|-----0-------0--|-----0------0-----|
A|----------------|------------------|
D|-0------0-------|---0-------0------|

Every once in a while throw in:

E|--------------------|
B|--------------------|
G|--------------------|
D|-----0----0h2p0-----|
A|--------------------|
D|-0------0-----------|

When the beat and rapping comes in there's two guitars:

Guitar 1 - Distortion
E|-------------------|
B|--3----------------|
G|--2----------------|
D|--0----------------|   Let Ring obviously
A|--0----------------|
D|--0----------------|

Guitar 2 - Clean

Same as intro but even simpler. Steady 4/4 quarter notes on D

E|------------------|
B|------------------|
G|------------------|
D|------0---------0-|
A|------------------|
D|-0---------0------|



Yea...that's about it
Tap to rate this tab
 
# A B C D E F G H I J K L M N O P Q R S T U V W X Y Z