Song name
# A B C D E F G H I J K L M N O P Q R S T U V W X Y Z

Death Hope - Friendly Death tab

Tuning, Drop D and This song is new as my shit

E----------------------8/5---|  x4
H----------------------------|
G----------------------------|
D----------------------------|
A--0-0-1-0-1-0-----3---------|
D--0-0-1-0-1-0-000-3---------|

E-----------------------------------| x2
H-----------------------------------|
G--------5---------6------3---5---6-|
D------3----------3------3----------|
A----6----------6-------6-----------|
D--3----------3--------3------------|
Tap to rate this tab
 
# A B C D E F G H I J K L M N O P Q R S T U V W X Y Z