Song name
# A B C D E F G H I J K L M N O P Q R S T U V W X Y Z

Death In December - Youre Nothing More Than An Easy Way To Run Acoustic tab

Help us improve GuitareTab! Take a short survey!
song: your nothing more than an easy way to run(acoustic)
artist: death in december


e-----------------------------------------------|
B-----------------------------------------------|
G---77-7------77-7------77-7------77-7----------|
D---77-7-(4x)-77-7-(4x)-77-7-(4x)-77-7-(4x)-----|
A---55--------xx--------xx--------xx------------|
E-------------55--------77--------55------------|

verse
e--------------------------------------------------|
B--------------------------------------------------|
G---77-7------77-7------77-7------6h7-77-7---------|
D---77-7-(4x)-77-7-(4x)-77-7-(4x)-----77-7-(4x)----| (2x)
A---55--------xx--------xx------------xx-----------|
E-------------55--------77------------55-----------|


chorus:

G1
e--------------------------------------------|
B--------------------------------------------|
G---7--------7--------7----------7-----------|
D---7-(8x)---7-(8x)---7-(8x)-----7-(8x)------| (2x)
A---5--------x--------x----------x-----------|
E------------5--------7----------5-----------|

G2
e------------------------------------------------|
B------------------------------------------------|
G---7--------------------------------------------|
D---7(8x)----7---------9----------7--------------| (2x)
A---5--------7(8x)-----9(8x)------7(8x)----------|
E------------5---------7----------5--------------|

interlude:

e--------------------------------------------------|
B--------------------------------------------------|
G---77-7------77-7------77-7------6h7-77-7---------|
D---77-7-(4x)-77-7-(4x)-77-7-(4x)-----77-7-(4x)----|
A---55--------xx--------xx------------xx-----------|
E-------------55--------77------------55-----------|


verse
e--------------------------------------------------|
B--------------------------------------------------|
G---77-7------77-7------77-7------6h7-77-7---------|
D---77-7-(4x)-77-7-(4x)-77-7-(4x)-----77-7-(4x)----| (2x)
A---55--------xx--------xx------------xx-----------|
E-------------55--------77------------55-----------|


chorus:

G1
e--------------------------------------------|
B--------------------------------------------|
G---7--------7--------7----------7-----------|
D---7-(8x)---7-(8x)---7-(8x)-----7-(8x)------| (2x)
A---5--------x--------x----------x-----------|
E------------5--------7----------5-----------|

G2
e------------------------------------------------|
B------------------------------------------------|
G---7--------------------------------------------|
D---7(8x)----7---------9----------7--------------| (2x)
A---5--------7(8x)-----9(8x)------7(8x)----------|
E------------5---------7----------5--------------|

bridge:
G1
e------------------------------------------------------------------------|
B------------------------------------------------------------------------|
G---7--7h6-6-66-6h7----7h6-6-66-6h7-----7h6-6-66-6h7----7h6-6-66-6h7-----|
D---7---------------7----------------9---------------7-------------------| (2x)
A---5---------------7----------------9---------------7-------------------|
E-------------------5----------------7---------------5-------------------|

then G2 enter

e------------------------------------------------|
B------------------------------------------------|
G---7--------------------------------------------|
D---7(8x)----7---------9----------7--------------|
A---5--------7(8x)-----9(8x)------7(8x)----------|
E------------5---------7----------5--------------|


G1
e------------------------------------------------------------------------|
B------------------------------------------------------------------------|
G---7--7h6-6-66-6h7----7h6-6-66-6h7-----7h6-6-66-6h7----7h6-6-66-6h7-----|
D---7---------------7----------------9---------------7-------------------|
A---5---------------7----------------9---------------7-------------------|
E-------------------5----------------7---------------5-------------------|

G1
e------------------------------------|
B------------------------------------|
G---7777/6666/9999/7777--------------|
D---6666/5555/8888/6666--------------|
A------------------------------------|
E------------------------------------|

G2
e----------------------------------------------------------------------------------|
B----------------------------------------------------------------------------------|
G---7---------7---------7----------------------------------------------------------|
D---7(4x)pause7(4x)pause7(2x)--7---------7---------7------9---------9----9------7--|
A---5---------5---------5------7(4x)pause7(4x)pause7(2x)--9----(4x)pause9(4x)pause9|
E------------------------------5---------5---------5------7---------7----7------5--|

-----------------------------------|
-----------------------------------|
-----------------------------------|
-------------7---------7-----------|
(2x)--7(4x)pause7(4x)pause7(2x)----|
-------------5---------5-----------|

G2
e------------------------------------------------|
B------------------------------------------------|
G---7--------------------------------------------|
D---7(8x)----7---------9----------7--------------|
A---5--------7(8x)-----9(8x)------7(8x)----------|
E------------5---------7----------5--------------|

(repeat chorus mute chord)

(repeat chorus 2x)


G2
e------------------------------------------------|
B------------------------------------------------|
G---7--------------------------------------------|
D---7(8x)----7---------9----------7--------------|
A---5--------7(8x)-----9(8x)------7(8x)----------|
E------------5---------7----------5--------------|


G1
e------------------------------------------------------------------------|
B------------------------------------------------------------------------|
G---7--7h6-6-66-6h7----7h6-6-66-6h7-----7h6-6-66-6h7----7h6-6-66-6h7-----|
D---7---------------7----------------9---------------7-------------------|
A---5---------------7----------------9---------------7-------------------|
E-------------------5----------------7---------------5-------------------|
Related for Youre Nothing More Than An Easy Way To Run Acoustic tab