Guitaretab - guitar tabs
Song name
# A B C D E F G H I J K L M N O P Q R S T U V W X Y Z

Death In December - Chemestry And Heartache tab

	Intro
E|--0--------0--------0--------0----0-0------|
B|--0--------0--------0--------2----3-2------|
G|--0--------5--------2--------0----0-0------|
D|--2--------5--------2--------2----2-2------|  
A|--2--------3--------0--------0----0-0------|
E|--0--------0--------0--------0----0-0------|  X2

	I stood at the front porch as you drive away I should have know youll kill me again
E|--0-----------------0-------------------------0------0----------------------0-0------------|
B|--0-----------------0-------------------------0------2----------------------3-2------------|
G|--0-----------------5-------------------------2------0----------------------0-0------------|
D|--2-----------------5-------------------------2------2----------------------2-2------------|
A|--2-----------------3-------------------------0------0----------------------0-0------------|
E|--0-----------------0-------------------------0------0----------------------0-0------------|

			But its too late cause Im sitting here alone again
E|--0-----------------0---------0---------------0----------0-0----------|
B|--0-----------------0---------0---------------2----------3-2----------|
G|--0-----------------5---------2---------------0----------0-0----------|
D|--2-----------------5---------2---------------2----------2-2----------|
A|--2-----------------3---------0---------------0----------0-0----------|
E|--0-----------------0---------0---------------0----------0-0----------|

	I followed your footsteps as youd walk away to see your face
E|--0--------------------0------------------------0----0----0-0---------|
B|--0--------------------0------------------------0----2----3-2---------|
G|--0--------------------5------------------------2----0----0-0---------|
D|--2--------------------5------------------------2----2----2-2---------|
A|--2--------------------3------------------------0----0----0-0---------|
E|--0--------------------0------------------------0----0----0-0---------|

	Is the reason why Im sitting here
E|--0-------0-----------------------------0----0----0-0-----------------|
B|--0-------0-----------------------------0----2----3-2-----------------|
G|--0-------5-----------------------------2----0----0-0-----------------|
D|--2-------5-----------------------------2----2----2-2-----------------|
A|--2-------3-----------------------------0----0----0-0-----------------|
E|--0-------0-----------------------------0----0----0-0-----------------|

[ Tab from: http://www.guitaretab.com/d/death-in-december/92440.html ]
	I should have know youd walk away from the inside
E|--X--XXX-----------------------X------------------0--0--0--0--|
B|--0--XXX-----------------------0------------------0--0--0--0--|
G|--0--XXX-----------------------0------------------0--4--0--4--|
D|--10-XXX-----------------------7------------------2--4--2--4--|
A|--10-XXX-----------------------7------------------2--2--2--2--|
E|--8--XXX-----------------------5------------------0--0--0--0--|

	I should have know youd kill me again But I guess Id do it all over again
E|--X--XXX-----------------------X------------------------0-/0-/0-----/0---------------------|
B|--0--XXX-----------------------0------------------------0-/0-/0-----/0---------------------|
G|--0--XXX-----------------------0------------------------0-/0-/0-----/0---------------------|
D|--10-XXX-----------------------7------------------------2-/4-/5-----/7---------------------|
A|--10-XXX-----------------------7------------------------2-/4-/5-----/7---------------------|
E|--8--XXX-----------------------5------------------------0-/0-/0-----/0---------------------|

	I should have know youd walk away from the first night
E|--X--XXX-----------------------X------------------0--0--0--0--|
B|--0--XXX-----------------------0------------------0--0--0--0--|
G|--0--XXX-----------------------0------------------0--4--0--4--|
D|--10-XXX-----------------------7------------------2--4--2--4--|
A|--10-XXX-----------------------7------------------2--2--2--2--|
E|--8--XXX-----------------------5------------------0--0--0--0--|

	I should have know youd kill me again 
E|--X--XXX-----------------------X~~~~---------|
B|--0--XXX-----------------------0~~~~---------|
G|--0--XXX-----------------------0~~~~---------|
D|--10-XXX-----------------------7~~~~---------|
A|--10-XXX-----------------------7~~~~---------|
E|--8--XXX-----------------------5~~~~---------|

	Take this these memories and well pretend were all the same
E|--X-------------------X-------------X------------------X-----------|
B|--X-------------------X-------------X------------------X-----------|
G|--X-------------------X-------------X------------------X-----------|
D|--10------------------7-------------2------------------4-----------|
A|--10------------------7-------------2------------------4-----------|
E|--8-------------------5-------------0------------------2-----------|
   .........................................................  PM

   (I guess 2nd guitar does this)	
E|--66-55--------------------------|
B|--------66-----------------------|
G|---------------------------------|
D|---------------------------------|
A|---------------------------------|
E|---------------------------------|

	Take this chemistry and well pretend were all ok
E|--X---------------X------------X--------------X--------------------|
B|--X---------------X------------X--------------X--------------------|
G|--X---------------X------------X--------------X--------------------|
D|--10--------------7------------2--------------4--------------------|
A|--10--------------7------------2--------------4--------------------|
E|--8---------------5------------0--------------2--------------------|
   .........................................................  PM





Related for Chemestry And Heartache tab