Guitaretab - guitar tabs
Song name
# A B C D E F G H I J K L M N O P Q R S T U V W X Y Z

Death In December - A Beautiful Tragedy Redefinition Of A Love Song tab

Hello!! Im 3Allan3 again!! You might remember me!! From the other song of Death in 
(Chemistry and heartache) or perhaps not!! Lol!! The thing its that when I said
(in the other song) this is my first fnk tab I was wrong!!, this one was relle my first
Tab!! So lol!!
For comments and corrections My email punkrockerxp@hotmail.com!!
Ah!! Y sta tab c la kiero dedikr a LuciitARawR!! la amiga... mas special q he tenido en 
my fnk life!! Nunk lo olvides TKMUXO! 3

        I think about the days Im cherising these memories we hade made
E|--0-----------------0---------------------------0-----------------0----------|
B|--0-----------------0---------------------------0-----------------0----------|
G|--9-----------------9---------------------------9-----------------9----------|
D|--9-----------------9---------------------------9-----------------9----------|
A|--7-----------------0---------------------------7-----------------7----------|
E|--0-----------------0---------------------------9-----------------7----------|

    We still have our stories about the times we stayed up all night talking on the telephone
E|----------------------0----------------0----------------------------0---------------------|
B|----------------------0----------------0----------------------------0---------------------|
G|----------------------9----------------9----------------------------9---------------------|
D|----------------------9----------------9----------------------------9---------------------|
A|----------------------7----------------0----------------------------7---------------------|
E|----------------------0----------------0----------------------------9---------------------|

    Again!!!
E|---0---------------|
B|---0---------------|
G|---9---------------|
D|---9---------------|
A|---7---------------|
E|---7---------------|

    We have the best times in life and I realize its over Im falling apart without you!!
E|-----------0------------------------0--------------------0--------------------0---------|
B|-----------0------------------------0--------------------0--------------------0---------|
G|-----------6------------------------2--------------------1--------------------4---------|
D|-----------6------------------------2--------------------2--------------------4---------|
A|-----------4------------------------0--------------------2--------------------2---------|
E|-----------0------------------------X--------------------0--------------------0---------|


E|--000-XXXX-000-000--|--000-XXXX-000-000--|--000-XXXX-000-000--|--000-000000-XXXX--|
B|--000-XXXX-000-000--|--000-XXXX-000-000--|--000-XXXX-000-000--|--000-000000-XXXX--|
G|--999-XXXX-999-999--|--999-XXXX-999-999--|--999-XXXX-999-999--|--999-999999-XXXX--|
D|--999-XXXX-999-999--|--999-XXXX-999-999--|--999-XXXX-999-999--|--999-999999-XXXX--|
A|--777-XXXX-777-000--|--777-XXXX-777-000--|--777-XXXX-777-777--|--777-777777-XXXX--|
E|--000-XXXX-000-000--|--000-XXXX-000-000--|--999-XXXX-999-777--|--999-999999-XXXX--|

	I saw you last night missing you the most when I look into your eyes
E|--0-------------------0----------------------0------------------------0-------------------|
B|--0-------------------0----------------------0------------------------0-------------------|
G|--9-------------------9----------------------9------------------------9-------------------|
D|--9-------------------9----------------------9------------------------9-------------------|
A|--7-------------------0----------------------7------------------------7-------------------|
E|--0-------------------0----------------------9------------------------7-------------------|
[ Tab from: http://www.guitaretab.com/d/death-in-december/92441.html ]
    I cant stop pretending that Im ok Im wishing you were sitting home thinking about me
E|---------------0-------------------0------------------------0---------------------------0--|
B|---------------0-------------------0------------------------0---------------------------0--|
G|---------------9-------------------9------------------------9---------------------------9--|
D|---------------9-------------------9------------------------9---------------------------9--|
A|---------------7-------------------0------------------------7---------------------------7--|
E|---------------0-------------------0------------------------9---------------------------7--|


    We have the best times in life and I realize its over Im falling apart without you!!
E|-----------0------------------------0--------------------0--------------------0---------|
B|-----------0------------------------0--------------------0--------------------0---------|
G|-----------6------------------------2--------------------1--------------------4---------|
D|-----------6------------------------2--------------------2--------------------4---------|
A|-----------4------------------------0--------------------2--------------------2---------|
E|-----------0------------------------X--------------------0--------------------0---------|

	And I cant take much more of this cause Im falling apart without you
E|--0---------------0----------0--------0-------------0---------0------------0----0----------|
B|--0---------------0----------0--------0-------------0---------0------------0----0----------|
G|--9---------------9----------9--------9-------------9---------9------------9----9----------|
D|--9---------------9----------9--------9-------------9---------9------------9----9----------|
A|--7---------------0----------7--------7-------------7---------0------------7----7----------|
E|--0---------------0----------9--------7-------------0---------0------------9----7----------|

	And even though I know you are leaving Im praying its not for good for good!!!...
E|--0--------------0--------0-----------0---------0------------0-----------0-------0---------|
B|--0--------------0--------0-----------0---------0------------0-----------0-------0---------|
G|--9--------------9--------9-----------9---------9------------9-----------9-------9---------|
D|--9--------------9--------9-----------9---------9------------9-----------9-------9---------|
A|--7--------------0--------7-----------7---------7------------0-----------7-------7---------|
E|--0--------------0--------9-----------7---------0------------0-----------9-------7---------|


    We have the best times in life and I realize its over Im falling apart without you!!
E|-----------0------------------------0--------------------0--------------------0---------|
B|-----------0------------------------0--------------------0--------------------0---------|
G|-----------6------------------------2--------------------1--------------------4---------|
D|-----------6------------------------2--------------------2--------------------4---------|
A|-----------4------------------------0--------------------2--------------------2---------|
E|-----------0------------------------X--------------------0--------------------0---------|

    I realize its over I realize its over I realize its over now!!
E|--0-------------------0-------------------0--------------------0---------------------------|
B|--0-------------------0-------------------0--------------------0---------------------------|
G|--6-------------------2-------------------1--------------------4---------------------------|
D|--6-------------------2-------------------2--------------------4---------------------------|
A|--4-------------------0-------------------2--------------------2---------------------------|
E|--0-------------------X-------------------0--------------------0---------------------------|


E|--000-XXXX-000-000--|--000-XXXX-000-000--|--000-XXXX-000-000--|--000-XXXX--000-000~~~~--|
B|--000-XXXX-000-000--|--000-XXXX-000-000--|--000-XXXX-000-000--|--000-XXXX--000-000~~~~--|
G|--999-XXXX-999-999--|--999-XXXX-999-999--|--999-XXXX-999-999--|--999-XXXX--999-999~~~~--|
D|--999-XXXX-999-999--|--999-XXXX-999-999--|--999-XXXX-999-999--|--999-XXXX--999-999~~~~--|
A|--777-XXXX-777-777--|--000-XXXX-000-000--|--777-XXXX-777-777--|--777-XXXX--777-777~~~~--|
E|--000-XXXX-000-000--|--000-XXXX-000-000--|--999-XXXX-999-999--|--999-XXXX--777-777~~~~--|
Related for A Beautiful Tragedy Redefinition Of A Love Song tab