Song name
# A B C D E F G H I J K L M N O P Q R S T U V W X Y Z

Death In June - The Fog Of The World tab

Band/Song: Death In June - The Fog Of The World
Album: The Corn Years

Tabbed by: RhoninX - http://profile.ultimate-guitar.com/RhoninX/
Email: lisekpl(a)o2.pl
Date: 03.02.2010

Tuning: Standard

Verse Guitar 1

     ^    v  ^    v  ^  v     ^    v  ^    v  ^  v   
     Q    E  Q    E  E  E     Q    E  Q    E  E  E   
E||------------------------|--0-------0-------------|
B||--0-------0-------------|--2----2--2----2--2--2--|
G||--0----0--0----0--0--0--|--2----2--2----2--2--2--|
D||--2----2--2----2--2--2--|--2----2--2----2--2--2--|
A||--2----2--2----2--2--2--|--0----0--0----0--0--0--|
E||--0----0--0----0--0--0--|------------------------|


  ^    v  ^    v  ^  v     ^    v  ^    v  ^  v   
  Q    E  Q    E  E  E     Q    E  Q    E  E  E   
------------------------|--0-------0-------------|
--0-------0-------------|--2----2--2----2--2--2--|
--0----0--0----0--0--0--|--2----2--2----2--2--2--|
--2----2--2----2--2--2--|--2----2--2----2--2--2--|
--2----2--2----2--2--2--|--0----0--0----0--0--0--|
--0----0--0----0--0--0--|------------------------|


Verse Guitar 2

     Q     E   E  H           Q     E   E  H         
E||------------------------|------------------------|
B||-----------15--L--------|-----------17--L--------|
G||-------17---------------|-------17---------------|
D||------------------------|------------------------|
A||------------------------|------------------------|
E||------------------------|------------------------|


  Q     E   E  H           Q     E   E  H         
------------------------|------------------------|
-----------15--L--------|-------17---------------|
-------17---------------|-----------14--L--------|
------------------------|------------------------|
------------------------|------------------------|
------------------------|------------------------|


Chorus Guitar 1

  ^    v  ^    v  ^  v     ^    v  ^    v  ^  v   
  Q    E  Q    E  E  E     Q    E  Q    E  E  E   
--0-------0-------------|--0-------0-------------|
--1----1--1----1--1--1--|--1----1--1----1--1--1--|
--0----0--0----0--0--0--|--2----2--2----2--2--2--|
--2----2--2----2--2--2--|--2----2--2----2--2--2--|
--3----3--3----3--3--3--|--0----0--0----0--0--0--|
------------------------|------------------------|


  ^    v  ^    v  ^  v     ^    v  ^    v  ^  v    
  Q    E  Q    E  E  E     Q    E  Q    E  E  E    
--0-------0-------------|--0-------0-------------||
--1----1--1----1--1--1--|--1----1--1----1--1--1--||
--0----0--0----0--0--0--|--2----2--2----2--2--2--||
--2----2--2----2--2--2--|--2----2--2----2--2--2--||
--3----3--3----3--3--3--|--0----0--0----0--0--0--||
------------------------|------------------------||


Chorus Guitar 2

  Q     E   E  H           Q     E   E  H         
------------------------|-------15---------------|
-------15--17--L--------|-----------17--L--------|
------------------------|------------------------|
------------------------|------------------------|
------------------------|------------------------|
------------------------|------------------------|


  Q     E   E  H           Q     E   E  H          
------------------------|-------15---------------||
-------15--17--L--------|-----------15--L--------||
------------------------|------------------------||
------------------------|------------------------||
------------------------|------------------------||
------------------------|------------------------||

Duration Legend
---------------
H - half
Q - quarter
E - 8th


Tablature Legend
----------------
L - tied note
^ - brush up
v - brush down

Tap to rate this tab
# A B C D E F G H I J K L M N O P Q R S T U V W X Y Z