Song name
# A B C D E F G H I J K L M N O P Q R S T U V W X Y Z

Death In June - Runes And Men tab

Band/Song: Death In June - Runes And Men
Album: The Corn Years

Tabbed by: RhoninX - http://profile.ultimate-guitar.com/RhoninX/
Email: lisekpl(a)o2.pl
Date: 03.02.2010

Tuning: Standard


Main Riff
     ^    ^  v    ^  v  ^     ^    ^  v    ^  v  ^   
     Q    E  Q    E  E  E     Q    E  Q    E  E  E   
E||----------0-------------|----------3-------------|
B||--0----0--0-------------|--0----0--0----0--0--0--|
G||--0----0--0----0--0--0--|--0----0--0----0--0--0--|
D||--2----2--2----2--2--2--|--0----0--0----0--0--0--|
A||--2----2-------2--2--2--|--2----2-------2--2--2--|
E||--0------------0--0--0--|--3------------3--3--3--|


  ^    ^  v    ^  v  ^     ^    ^  v    ^  v  ^   
  Q    E  Q    E  E  E     Q    E  Q    E  E  E   
----------0-------------|----------0-------------|
--1----1--1----1--1--1--|--2----2--2----2--2--2--|
--0----0--0----0--0--0--|--2----2--2----2--2--2--|
--2----2--2----2--2--2--|--2----2--2----2--2--2--|
--3----3-------3--3--3--|--0----0-------0--0--0--|
--0---------------------|--0---------------------|

Faster Part

  ^    ^  v    ^  v  ^ v    ^    ^  v    ^  v  ^ v  
  Q    E  Q    E  E  S S    Q    E  Q    E  E  S S  
----------0--------------|----------3--------------|
--0----0--0--------------|--0----0--0----0--0------|
--0----0--0----0--0--0-0-|--0----0--0----0--0--0-0-|
--2----2--2----2--2--0-0-|--0----0--0----0--0--2-2-|
--2----2-------2--2--2-2-|--2----2-------2--2--3-3-|
--0------------0--0--3-3-|--3------------3--3------|


  ^    ^  v    ^  v  ^ v    ^    ^  v    ^  v  ^     
  Q    E  Q    E  E  S S    Q    E  Q    E  E  S S   
----------0--------------|----------0--------------||
--1----1--1----1--1------|--2----2--2----2--2------||
--0----0--0----0--0--2-2-|--2----2--2----2--2--0-0-||
--2----2--2----2--2--2-2-|--2----2--2----2--2--2-2-||
--3----3-------3--3--0-0-|--0----0-------0--0--2-2-||
--0----------------------|--0------------------0-0-||



Duration Legend
---------------
Q - quarter
E - 8th
S - 16th


Tablature Legend
----------------
^ - brush up
v - brush down
Tap to rate this tab
# A B C D E F G H I J K L M N O P Q R S T U V W X Y Z