Song name
# A B C D E F G H I J K L M N O P Q R S T U V W X Y Z

Death In Vegas - Dirge tab

artist: death in vegas
song title: dirge
album: the contino sessions


      Eb                  Ab5
la la la....        la la la....

e |------------------------------------------|
B |------------------------------------------|
G |------------------------------------------|
D |------------------------------------------|
A |------7-6-----6---6-------7-6-----6---6---|
E |--6-6-------6---6-----6-6-------6---6-----|


e |------------------------------------------|
B |------------------------------------------|
G |------------------------------------------|
D |------------------------------------------|
A |------7-6-----6---6-------7-6-----6---6---|
E |--4-4-------4---4-----4-4-------4---4-----|
Tap to rate this tab
# A B C D E F G H I J K L M N O P Q R S T U V W X Y Z