Song name
# A B C D E F G H I J K L M N O P Q R S T U V W X Y Z

Death Is Our Destiny - Come Back tab

        ########################
        # Death Is Our Destiny #
        #       Come Back      #
        ########################

        == Play in this order ==

Intro
Intro 2
Riff 1
Riff 2
Riff 1
Riff 2
Riff 3
Riff 2
Outro

        == Intro ==

e |-----------------------------------|
B |-----7-------7-------7-----9h7-----|
G |-8-------8-------8-------8-----8---|
D |---8---8---8---8---8---8---------8-|
A |-----------------------------------|
E |-----------------------------------|


        == Intro 2 ==

e |---------|
B |---------|
G |-8-8-8-8-|
D |-8-8-8-8-|
A |-6-6-6-6-|
E |---------|
    . . . .


        == Riff 1 ==

e |---------------------------------|
B |---------------------------------|
G |-8-8-8-8-8-8-8-8-6-6-6-6-4-4-----|
D |-8-8-8-8-8-8-8-8-6-6-6-6-4-4-4-4-|
A |-6-6-6-6-6-6-6-6-4-4-4-4-2-2-4-4-|
E |-----------------------------2-2-|
    . . . . . . . . . . . . . . . .


        == Riff 2 ==

e |-------------------------------------|
B |-------------------------------------|
G |-------------------------------------|
D |-6--------9--------4--------2--------| X2
A |-6--------9--------4--------2--------|
E |-4--------7--------2--------0--------|


        == Riff 3 ==

e |--------------------------------------|
B |--------------------------------------|
G |--------------------------------------|
D |-8--------11--------6--------4--------|
A |-8--------11--------6--------4--------|
E |-6--------9---------4--------2--------|


        == Outro ==

e |------------------|
B |------------------|
G |------------------|
D |-6----------------|
A |-6----------------|
E |-4----------------|
Tap to rate this tab
 
# A B C D E F G H I J K L M N O P Q R S T U V W X Y Z