Song name
# A B C D E F G H I J K L M N O P Q R S T U V W X Y Z

Death Note - L No Nakama tab

Tabbed by: thephoenixseal
Artist:Taniuchi Hideki
Album:DEATH NOTE Original Soundtrack II

So it's pretty easy you just need to find the best effect for you guitar that will make 
sound just as in the original track:

Guitar 1 plays only this:

e|------------------------------|
B|---------10------------12-----|
G|-12--9-------9--12--9-----12--|
D|------------------------------|
A|------------------------------|
E|------------------------------|


And guitar 2 plays only this:
e||-3-0-5-0-2-3-0-7-5-0---0-------------------------|
B||-------------------3-----------------------------|
G||-------------------------------------------------|
D||-------------------------------------------------|
A||-------------------------------------------------|
E||-------------------------------------------------|

That's all really easy,just listen to the song and play along and enjoy =)
Tap to rate this tab
# A B C D E F G H I J K L M N O P Q R S T U V W X Y Z