Song name
# A B C D E F G H I J K L M N O P Q R S T U V W X Y Z

Death Note - Near Theme tab

NEAR'S THEME (TAB BY CHIARA13792)

verse
-----------------------------------------------------------------------|
-----------------------------------------------------------------------|
-------6-----6-----9--8--6-------------6--------6-----8--6-------------| x4
----6----6-----------------6--------6-----6-----------------6----------|
-7---------6----6-------------9--7-----------6-----6-----------9--7--9-|
-----------------------------------------------------------------------|
chorus
-----------------------------------------------------------------------|
--5--4--3--0--3-/-4-\-3--3----14--12--12-\-11--11-\-9--9---------------|
-----------------------------------------------------------------------| x2
-----------------------------------------------------------------------|
-----------------------------------------------------------------------|
-----------------------------------------------------------------------|

repeat verse, chorus (x3)
Tap to rate this tab
 
# A B C D E F G H I J K L M N O P Q R S T U V W X Y Z