Song name
# A B C D E F G H I J K L M N O P Q R S T U V W X Y Z

Death Piggy - Nympho tab

First Death Piggy tab on UG! I'm attempting to tab 
all of their songs, since there's only about 20 or 
so. This is probably their simplest song (it's 43
seconds long) and there's only one and a half riffs in it.


Death Piggy on Wikipedia: http://en.wikipedia.org/wiki/Death_Piggy
Death Piggy Fan Page: http://www.spookykids.net/gwar/deathpiggy/Piggy.html
"Nympho" on Youtube: www.youtube.com/watch?v=sPT7b520GlE




"(This has gotta be the stupidest band in the world.)"

|-------------------------------------------|
|-------------------------------------------|
|------10-10-9-9-----------10-10-9-9--------|
|--9-9-10-10-9-9-10-10-9-9-10-10-9-9-10-10--|
|--9-9--8--8-7-7-10-10-9-9--8--8-7-7-10-10--|
|--7-7------------8--8-7-7------------8--8--| x2


"Do you, whatta you, maybe want on your sandwich?!"

|-------------------------------------------|
|-------------------------------------------|
|------10-10-9-9-----------10-10-9-9--------|
|--9-9-10-10-9-9-10-10-9-9-10-10-9-9-10-10--|
|--9-9--8--8-7-7-10-10-9-9--8--8-7-7-10-10--|
|--7-7------------8--8-7-7------------8--8--| 


"Do you maybe want some...ketchup?!"

|-------------------------------------------|
|-------------------------------------------|
|------10-10-9-9-----------10-10-9-9--------|
|--9-9-10-10-9-9-10-10-9-9-10-10-9-9-10-10--|
|--9-9--8--8-7-7-10-10-9-9--8--8-7-7-10-10--|
|--7-7------------8--8-7-7------------8--8--| 


"Orrrrrrrr...MUSTARD?!"

|-------------------------------------------|
|-------------------------------------------|
|------10-10-9-9-----------10-10-9-9--------|
|--9-9-10-10-9-9-10-10-9-9-10-10-9-9-10-10--|
|--9-9--8--8-7-7-10-10-9-9--8--8-7-7-10-10--|
|--7-7------------8--8-7-7------------8--8--| 


"I like bologna, say I like SALAMI!!"

|-------------------------------------------|
|-------------------------------------------|
|------10-10-9-9-----------10-10-9-9--------|
|--9-9-10-10-9-9-10-10-9-9-10-10-9-9-10-10--|
|--9-9--8--8-7-7-10-10-9-9--8--8-7-7-10-10--|
|--7-7------------8--8-7-7------------8--8--| x2


OUTRO
|------------------------------------|
|------------------------------------|
|------------------------------------|
|--9--------------10-9---------------|
|--9--------------10-9---------------|
|--7---------------8-7---------------|
     "Mayonnaise"      "Mayonnaise."

                                           (Play as much as you can)
|----------------------------------------------------------------------|
|----------------------------------------------------------------------|
|----------------------------------------------------------------------|
|--10-9---------------10-9-----------------101010101010101010----------|
|--10-9---------------10-9-----------------101010101010101010----------|
|---8-7----------------8-7------------------8-8-8-8-8-8-8-8-8----------|
        "Mayonnaise!"      "MAYONNAISE!!!"                 "SHUT UP!!"




That's it. 43 second song, but it's fun to play.
Feedback is welcomed.

-- DH
==================================================================
Tap to rate this tab
 
# A B C D E F G H I J K L M N O P Q R S T U V W X Y Z