Song name
# A B C D E F G H I J K L M N O P Q R S T U V W X Y Z

Death - Perennial Quest tab

D tuning
This is played underneath the rest of the outro
|-6-----5-----6-----5----------6-----6-----5-----5-|
|---3-----3-----3-----3------4-----4-----4-----4---|
|-----0-----0-----0-----0--3-----3-----3-----3-----|
|--------------------------------------------------|
|--------------------------------------------------|
|--------------------------------------------------|

Both leads play this together
|-----------------------------------------------|
|-10h11-10~--10/3-3/6-6~--10h11-10~-10/3-3/6-6~-|
|-----------------------------------------------|
|-----------------------------------------------|
|-----------------------------------------------|
|-----------------------------------------------|

Both leads play this part one after the other
|-----------------------------------------------------------|
|-10h11-10~-10h11-11~-11/13-13~-13/15-15-15/18-18-18/20-20~-|
|-----------------------------------------------------------|
|-----------------------------------------------------------|
|-----------------------------------------------------------|
|-----------------------------------------------------------|

This part fades in and out with each note both leads this together
|---------------------------------------------------------------------------------|
|-15~--16~--13~--13~--16~--10h11-10~--20~--23~------------23~--20~--18~--16~--15~-|
|-----------------------------------------------12~--15~--------------------------|
|---------------------------------------------------------------------------------|
|---------------------------------------------------------------------------------|
|---------------------------------------------------------------------------------|
Tap to rate this tab
# A B C D E F G H I J K L M N O P Q R S T U V W X Y Z