Song name
# A B C D E F G H I J K L M N O P Q R S T U V W X Y Z

Death - Secret Face tab

Secret Face

As recorded by Death

(From the 1991 Album Human)

Transcribed by ScreamOfSilence


Tuning: (D G C F A D)



Rhy Fig 1 
|-------------------------------------------------------------------|
|-------------------------------------------------------------------|
|-------------------------------------------3-----------------------|
|-3---4---3---4---2----3---4----3---4---2---------------------------|
|---1-------1---1--------1--------1---1---1-------------------------|
|-------------------------------------------------------------------|

Rhy Fig 2 A
|-------------------------------------------------------------------|
|-------------------------------------------------------------------|
|-------------------------------------------------------------------|
|-3-------------4-------------2-3--------------4--------------2-----|
|---1-1-1-1-1-1---1-1-1-1-1-1------1-1-1-1-1-1---1-1-1-1-1-1--------|
|-------------------------------------------------------------------|

Rhy Fig 2 B
|-------------------------------------------------------------------|
|-------------------------------------------------------------------|
|-------------------------------------------------------------------|
|--------------------------------------------------------------4----|
|-4-------------5-------------3-4--------------5-------------3------|
|---2-2-2-2-2-2---2-2-2-2-2-2------2-2-2-2-2-2---2-2-2-2-2-2--------|

Rhy Fig 3
|-------------------------------------------------------------------|
|-------------------------------------------------------------------|
|-------------------------------------------------------------------|
|-------------------------------------------------------------------|
|-----------3~------------3p2----------------3AH~-4--4-3--4-4-3----|
|-2--2-2--2-----2--2-2--2-----3----2--2-2--2------2-2/1--2--2/1----|


Rhy Fig 4
|-------------------------------------------------------------------|
|-------------------------------------------------------------------|
|-------------------------------------------------------------------|
|-------------------------------------------------------------------|
|-5-5-4-4------4-4------4-4-3-3-----3-3-----3-3---------------------|
|--------2-2------2-2----------1-1-----1-1-----1-1------------------|

|-------------------------------------------------------------------|
|-------------------------------------------------------------------|
|-------------------------------------------------------------------|
|---------------------4-4-3-3-----3-3-----3-3-----------------------|
|-5-5-4-4------4-4-------------1-1-----1-1-----1-1------------------|
|---------2-2------2-2----------------------------------------------|



Rhy Fig 5
|-------------------------------------------------------------------|
|-------------------------------------------------------------------|
|-------------------------------------------------------------------|
|----5-4--------------------------7-6-------------------------------|
|-2~------5---------6-5--------4~------7-------8-7------------------|
|---------------3~------6-------------------5~------8---------------|



Rhy Fig 6
|-----------------------------------------------------------------|
|-------17-------17------------17--------17-----------------------|
|----16-------16----16------16--------16----16--------------------|
|-14-------14---------14-14--------14----------14-----------------|
|-----------------------------------------------------------------|
|-----------------------------------------------------------------|
|
|-----------------------------------------------------------------|
|-----------------------------------------------------------------|
|-----------------------------------------------------------------|
|-9---------------------------------------------------------------|
|-7---------------------------------------------------------------|
|-0---------------------------------------------------------------|

|-----------------------------------------------------------------|
|-------21-------21-------------21-------21-----------------------|
|----20-------20----20-------20-------20----20--------------------|
|-18-------18----------18-18-------18----------18-----------------|
|-----------------------------------------------------------------|
|-----------------------------------------------------------------|
|
|-----------------------------------------------------------------|
|-----------------------------------------------------------------|
|-----------------------------------------------------------------|
|-13--------------------------------------------------------------|
|-11--------------------------------------------------------------|
|-----------------------------------------------------------------|

|-----------------------------------------------------------------|
|-------17-------17------------17--------17-----------------------|
|----16-------16----16------16--------16----16--------------------|
|-14-------14---------14-14--------14----------14-----------------|
|-----------------------------------------------------------------|
|-----------------------------------------------------------------|
|
|-----------------------------------------------------------------|
|-----------------------------------------------------------------|
|-----------------------------------------------------------------|
|-9---------------------------------------------------------------|
|-7---------------------------------------------------------------|
|-0---------------------------------------------------------------|


|-----------------------------------------------------------------|
|-16-------16-------16------19-------19-------19------------------|
|----15-------15---------------18-------18------------------------|
|-------13-------13----13---------16-------16----16---------------|
|-----------------------------------------------------------------|
|-----------------------------------------------------------------|
|
|-----------------------------------------------------------------|
|-----------------------------------------------------------------|
|-----------------------------------------------------------------|
|-8--------------------------11-----------------------------------|
|-6--------------------------9------------------------------------|
|-----------------------------------------------------------------|


Rhy Fig 7
|-----------------------------------------------------------------|
|-17----------17--21-----------------19---------------------------|
|----16----16--------20----------20-----18------------------------|
|-------14--------------18----18-----------16---------------------|
|--------------------------19-------------------------------------|
|-----------------------------------------------------------------|



Solo
|----------------------------------------10-9-7-9~--10-12-10-9~---|
|---------------------------14-12-11-12~--------------------------|
|-12-11-9-11~--12-11-9-11~----------------------------------------|
|-----------------------------------------------------------------|
|-----------------------------------------------------------------|
|-----------------------------------------------------------------|

|----------------------------------------10-9-7-9~-----14-12---15-14~-|
|---------------------------14-12-11-12~-------------15------14-------|
|-12-11-9-11~--12-11-9-11~--------------------------------------------|
|---------------------------------------------------------------------|
|---------------------------------------------------------------------|
|---------------------------------------------------------------------|

|-15-12-14-12------------12h15-12-14-------------------------------|
|-------------15-14-12---------------15-14-12-12h14-11h12-14h15~---|
|------------------------------------------------------------------|
|------------------------------------------------------------------|
|------------------------------------------------------------------|
|------------------------------------------------------------------|

|------------------------------------------------------------------|
|-14-12-11-14-11-12~-----------------------------------------------|
|----------------------12-11-9-11------------11-12-11-9------------|
|---------------------------------12-9-12-11------------12-11-9----|
|------------------------------------------------------------------|
|------------------------------------------------------------------|


|-----------------------------------------------------------------------|
|--------------------------------------------------------------11-------|
|-----------------------------------------------9------9-11-12----12-11~|
|-8-11-8-9--8-9-8-----------9-8---12-11-9-11-12---11-12-----------------|
|-----------------10---9-10-----9---------------------------------------|
|-----------------------------------------------------------------------|


Rhy Fig 8 under Solo

|------------------------------------------------------------------|
|------------------------------------------------------------------|
|------------------------------------------------------------------|
|------------------------------------------------------------------|
|------------------------------------------------------------------|
|-2-2-2-2-2-2-2-2-2-2-2-2-2-2-2-2-3-3-3-3-3-3-3-3-3-3-3-3-3-3-3-3--|



Rhy Fig 9
|-----------------------------------------------------------------|
|-------------------------------------------9---------------------|
|-9----------------------------------7-9-10---10-9~---------------|
|---10-12-10-9-10-9-----------7-9-10------------------------------|
|------------------12-11~-----------------------------------------|
|-----------------------------------------------------------------|
|
|-----------------------------------------------------------------|
|-----------------------------------------------------------------|
|-----------------------------------------------------------------|
|-2--------------------------3------------------------------------|
|-2--------------------------3------------------------------------|
|-0--------------------------1------------------------------------|


|-----------------------------------------------------------------|
|-----------------------------------------9-----------------------|
|-9--------------------------------7-9-10----10-9~--9A~-----------|
|---10-12-10-9-10-9-----------7-9-10------------------------------|
|------------------12-11~-----------------------------------------|
|-----------------------------------------------------------------|
|
|-----------------------------------------------------------------|
|-----------------------------------------------------------------|
|-----------------------------------------------------------------|
|-2--------------------------3------------------------------------|
|-2--------------------------3------------------------------------|
|-0--------------------------1------------------------------------|

Rhy Fig 10
|------------------------------------------------------------------|
|------------------------------------------------------------------|
|------------------------------------------------------------------|
|---------6---------------6---------------6---------------6--------|
|-5----------------5---------------5---------------5----------5----|
|---4-4-4----4-4-4---4-4-4---4-4-4---4-4-4---4-4-4---4-4-4-------4-|

|------------------------------------------------------------------|
|--------9---------------9---------------9---------------9---------|
|-6---------------6---------------6---------------6----------6-----|
|---6-6-6---6-6-6---6-6-6---6-6-6---6-6-6---6-6-6---6-6-6-------6--|
|------------------------------------------------------------------|
|------------------------------------------------------------------|



Rhy Fig 1 
Rhy Fig 2 A
Rhy Fig 2 B
Rhy Fig 2 A
Rhy Fig 2 B
Rhy Fig 2 A
Rhy Fig 3 Play 3 times
Rhy Fig 4 Play 4 times
Rhy Fig 5 Play 2 times
Rhy Fig 6 Play 2 times
Rhy Fig 7 
Solo
Rhy Fig 8 under Solo Play 4 times
Rhy Fig 9 
Rhy Fig 10 Play 3 times
Rhy Fig 2 A
Rhy Fig 2 B
Rhy Fig 2 A
Rhy Fig 2 B
Rhy Fig 2 A
Rhy Fig 3 Play 3 times
Rhy Fig 4 Play 4 times
Rhy Fig 5 Play 2 times
And finish with A
|--------|
|--------|
|--------|
|--7-----|
|--7-----|
|--5-----|



Tablature Legend
----------------
 h   - hammer-on
 p   - pull-off
 b   - bend
 r   - bend release 
 /\  - slide into or out of (from/to "nowhere")
 AH  - artificial harmonic

Have fun.
Tap to rate this tab
# A B C D E F G H I J K L M N O P Q R S T U V W X Y Z