Death - See Through Dreams tab

DEATH
See Through Dreams

There wasn't a decent enough tab of this up so I thought I'd make one :)

Didn't bother with palm mutes, note timings or riff order just listen to the song to get those!

ENJOY

Tuning - D,G,C,F,A,D

Riff 1                                 *2nd guitar comes in here 1st repeat*
                                            V 
|------------------------|------------------------------|  x4
|------------------------|------------------------------|
|------------------------|------------------------------|
|--------------------3-3-|--------------------4-5---6-7-|
|------------------3-1-1-|------------------4-2-3-5-4-5-|
|-0000000000000000-1-----|-2222222222222222-2-----3-----|


Riff 2

|-------------------------|-------------------------| x2
|-------------------------|-------------------------|
|-------------------------|-------------------------|
|-------------------------|-------------------------|
|---5-6---5-4---5-6---5-4-|-6-5---4-5---6-5---4-5---|
|-4-----3-----4-----3-----|-----4-----3-----4-----3-|

Riff 2 Variation (all palm-muted)

|--------------------------------------|--------------------------------------|  x2
|--------------------------------------|--------------------------------------|
|--------------------------------------|--------------------------------------|
|--------------------------------------|--------------------------------------|
|----555666---555444---555666---555444-|-666555---444555---666555---444555----|
|-444------333------444------333-------|-------444------333------444------333-|

(guitar 2 plays this on 2nd repeat of variation)
|--------------------------------------|--------------------------------------|
|--------------------------------------|--------------------------------------|
|--------------------------------------|--------------------------------------|
|----777888---777666---777888---777666-|-888777---666777---888777---666777----|
|-666------555------666------555-------|-------666------555------666------555-|
|--------------------------------------|--------------------------------------|


Riff 3
                      *
|---------------------|----------------------------------| x4 (end on * 4th time)
|---------------------|----------------------------------|
|---------------------|----------------------------------|
|-6---7-6-------------|----------------------------------|
|-4-------7-7---7-6---|----------------------------------|
|-----------5-------7-|-00000000000000004444444444444444-|

every 2nd repeat guitar 2 plays
|---------------------|----------------------------------|
|---------------------|----------------------------------|
|-----9-8-------------|----------------------------------|
|-6-------9-----9-8---|----------------------------------|
|-4---------7-------9-|----------------------------------|
|-----------5---------|-00000000000000004444444444444444-|


Riff 4

|-----------------------------|--------------------------------| x4
|-----------------------------|--------------------------------|
|-----------------------------|--------------------------------|
|---------------------------4-|--------------------------------|
|---------------------------2-|-------------------------2h3----|
|-33333333-4~-33333333-4~-3---|-33333333-4~-33333333-3h4----2~-|
           ^ heavy vibrato (almost a 1/4 bend and release)

Riff 5 (Under solo)

|---------------------------------|---------------------------------| x6
|---------------------------------|---------------------------------|
|---------------------------------|---------------------------------|
|---------------------------------|---------------------------------|
|-44444444444444444444444444444444|----------------3333333333333333-|
|---------------------------------|5555555555555555-----------------|


Riff 6              guitar 2 comes in
                      V
|---------------------------------|---------------------------------| x4
|---------------------------------|---------------------------------|
|---------------------------------|---------------------------------|
|---------------------4---3-------|---------------------4---3-------|
|-4---5---7---5---4---2---1---3---|-4---5---7---5---4---2---1---3---|
|-2-0-3-0-5-0-3-0-2-0---0---0-1-0-|-2-0-3-0-5-0-3-0-2-0---0---0-1---|
Tap to rate this tab
 
# A B C D E F G H I J K L M N O P Q R S T U V W X Y Z