Song name
# A B C D E F G H I J K L M N O P Q R S T U V W X Y Z

Death - Evil Dead tab

Evil Dead
Scream Bloody Gore
Death

Conventional D

Guitar 1 (chuck rhythm)
Guitar 2 (chuck lead)

Intro  (Slow)
Guitar 1 
d|--------------------------------------|
A|--------------------------------------|
F|--------------------------------------|x2
C|--------------------------------------|
G|--7---------5---------3---------2-----|
D|--5---------3---------1---------0-----|

Guitar 2 
d|--------------------------------------|
A|-----17-------13-17-13----------------|
F|--14----14-16----------16-------------|x16
C|--------------------------------------|
G|--------------------------------------|
D|--------------------------------------|

Guitar 1 
d|--------------------------------------|
A|--------------------------------------|
F|--------------------------------------|
C|--------------------------------------|
G|--7-----------------------------------|
D|--5-----------------------------------|

Guitar 2 
d|--------------------------------------|
A|--------------------------------------|
F|--14tr16-----------14-----------------|
C|--------------------------------------|
G|--------------------------------------|
D|--------------------------------------|


Guitar 1 
d|------|-----------------------------|
A|------|-----------------------------|
F|------|-------9------10-----9-------|
C|------|-------7------8------7-9-10--|
G|-//12-|-00000---0000---0000---7-8---|
D|------|-----------------------------|

Guitar 1 
d|------------------------------|
A|------------------------------|
F|--------9------10-----9-------|
C|--------7------8------7-9-10--|
G|--00000---0000---0000---7-8---|
D|------------------------------|
                                 x3
Guitar 2 
d|------------------------------|
A|------------------------------|
F|------------------------------|
C|------------------------------|
G|-7----------------------------|
D|-5----------------------------|

Drum Fill
Guitar 1 
d|-----------------------------|
A|-----------------------------|
F|-------9------10-----9-------|
C|-------7------8------7-9-10--|
G|-00000---0000---0000---7-8---|
D|-----------------------------|

Main Riff
Guitar 1&2 
d|-----------------------------|
A|-----------------------------|
F|-------9------10-----9-------|x4
C|-------7------8------7-9-10--|
G|-00000---0000---0000---7-8---|
D|-----------------------------|

Verse
Guitar 1&2                   second time
d|--------------------------|---------|
A|--------------------------|---------|
F|------------------------x2|---------|
C|-7-----9-----10--12--10--9|-7-5-4---|
G|-5-----7-----8---10--8---7|-5-3-2---|
D|--------------------------|---------|

Chorus
Guitar 1&2 
d|-----------------------------|
A|-----------------------------|
F|-------9------10-----9-------|x4
C|-------7------8------7-9-10--|
G|-00000---0000---0000---7-8---|
D|-----------------------------|

Second Verse
Guitar 1&2                   second time
d|--------------------------|---------|
A|--------------------------|---------|
F|------------------------x2|---------|
C|-7-----9-----10--12--10--9|-7-5-4---|
G|-5-----7-----8---10--8---7|-5-3-2---|
D|--------------------------|---------|

Second Chorus
Guitar 1&2 
d|-----------------------------|
A|-----------------------------|
F|-------9------10-----9-------|x4
C|-------7------8------7-9-10--|
G|-00000---0000---0000---7-8---|
D|-----------------------------|

SOLO

Solo Rhythm 
Guitar 1                     second time
d|--------------------------|---------|
A|--------------------------|---------|
F|------------------------x2|---------|
C|-7-----9-----10--12--10--9|-7-5-4---|
G|-5-----7-----8---10--8---7|-5-3-2---|
D|--------------------------|---------|

d|-----------------------------|
A|-----------------------------|
F|-------9------10-----9-------|x4
C|-------7------8------7-9-10--|
G|-00000---0000---0000---7-8---|
D|-----------------------------|
                             second time
d|--------------------------|---------|
A|--------------------------|---------|
F|------------------------x2|---------|
C|-7-----9-----10--12--10--9|-7-5-4---|
G|-5-----7-----8---10--8---7|-5-3-2---|
D|--------------------------|---------|


End Solo
Guitar 1
d|-----------------------------|
A|-----------------------------|
F|-------9------10-----9-------|x4
C|-------7------8------7-9-10--|
G|-00000---0000---0000---7-8---|
D|-----------------------------|


Guitar 1&2
d|-----------------------------|
A|-----------------------------|
F|-----------------------------|
C|-----------------------------|
G|-7---------------------------|
D|-5---------------------------|

Guitar 1 
d|------|-----------------------------|
A|------|-----------------------------|
F|------|-------9------10-----9-------|
C|------|-------7------8------7-9-10--|
G|-//12-|-00000---0000---0000---7-8---|
D|------|-----------------------------|

Guitar 1 
d|------------------------------|
A|------------------------------|
F|--------9------10-----9-------|
C|--------7------8------7-9-10--|
G|--00000---0000---0000---7-8---|
D|------------------------------|
                                  x3
Guitar 2 
d|------------------------------|
A|------------------------------|
F|------------------------------|
C|------------------------------|
G|-7----------------------------|
D|-5----------------------------|

Drum Fill
Guitar 1 
d|-----------------------------|
A|-----------------------------|
F|-------9------10-----9-------|
C|-------7------8------7-9-10--|
G|-00000---0000---0000---7-8---|
D|-----------------------------|

Main Riff
Guitar 1&2 
d|-----------------------------|
A|-----------------------------|
F|-------9------10-----9-------|x4
C|-------7------8------7-9-10--|
G|-00000---0000---0000---7-8---|
D|-----------------------------|

Third Verse
Guitar 1&2                   second time
d|--------------------------|---------|
A|--------------------------|---------|
F|------------------------x2|---------|
C|-7-----9-----10--12--10--9|-7-5-4---|
G|-5-----7-----8---10--8---7|-5-3-2---|
D|--------------------------|---------|

Third Chorus
Guitar 1&2 
d|-----------------------------|
A|-----------------------------|
F|-------9------10-----9-------|x4
C|-------7------8------7-9-10--|
G|-00000---0000---0000---7-8---|
D|-----------------------------|

Guitar 1&2                   second time
d|--------------------------|-----------|
A|--------------------------|-----------|
F|------------------------x2|-----------|
C|-7-----9-----10--12--10--9|-7-5-4-2---|
G|-5-----7-----8---10--8---7|-5-3-2-0---|
D|--------------------------|-----------|


Song Structure
Intro
Main Riff
First Verse
First Chorus
Second Verse
Second Chorus
SOLO
Main Riff
Third Verse 
Third Chorus
Outro Verse Riff

KEY
/:slide Down
\:slide up
*:pinch harmonic
~:sustain note
Tap to rate this tab
# A B C D E F G H I J K L M N O P Q R S T U V W X Y Z