Song name
# A B C D E F G H I J K L M N O P Q R S T U V W X Y Z

Death - To Forgive Is To Suffer tab

Death - To forgive is to suffer (solo)
DGCFAD Tune 1 whole step down

The guitarpro solo was off in parts, so I decided to learn it by ear

4:45
|----------------------------------22p19----------------------------------|
|---------------------17p16-------------20~~~~----------------------------|
|--14~~~-13h14p13~~~--------17~~~-----------------------------------------|
|-------------------------------------------------------------------------|
|-------------------------------------------------------------------------|
|-------------------------------------------------------------------------|

2:51
|---------1920-22p19-1919-22p19-1919-22p19-1919-22p19-1919--22b24-22b24~~~|
|-19192020-------------------------------------------------(22b24-22b24~~)|
|-------------------------------------------------------------------------|
|---------ALL---THESE---NOTES---ARE---TREMOLO---PICKED--------------------|
|-------------------------------------------------------------------------|
|-------------------------------------------------------------------------|

2:55
|-----1717-19p17-----20b22-20b22~~~---------------------------------------|
|-2020-----------20-(20b22-20b22~~~)---17p16--19p16-1616-19p16-1616-19p16-|
|------------------------------------/16----16----------------------------|
|-------------------------------------------------------------------------|
|-------------------------------------------------------------------------|
|-------------------------------------------------------------------------|


|-------------------------------------------------------------------------|
|-1616-19p16-1616-19p16-1616-16/19-20b22~~~~r20--19p16h17--(17b)19r17-----|
|-------------------------------------------------------------------------|
|-------------------------------------------------------------------------|
|-------------------------------------------------------------------------|
|-------------------------------------------------------------------------|

3:03
|-------------------------------------------------------------------------|
|--17p16------------------------------------------------------------------|
|--------14h16-16~~~~----------1414-17p141414-16p14--1414-17p141414-16p14-|
|----------------------14h16h17-------------------------------------------|
|------------------------ALL---OF---THESE---NOTES---ARE---PALM---MUTED----|
|-----------------------.................................................-|


|-------------------------------------------------------------------------|
|-----------------------17p13-13131313-17p13-13131313-17p13-13131313------|
|-1414-17p14-1414-16p14---------------------------------------------------|
|-------------------------------------------------------------------------|
|-------------------------------------------------------------------------|
|-...............---------------------------------------------------------|

 3:10
|-------------------------------------------------------------------------|
|-242424242424-0-242424-0-242424242424-0-242424-0-242424-0-24242424242424-|
|-------------------------------------------------------------------------|
|-------------------------------------------------------------------------|
|-these-are-24th-frets-not-2nd-and-4th-frets------------------------------|
|-------------------------------------------------------------------------|

|-------------------------------------24p22p20----------------------------|
|-24242424-000000-2222-00-24242424--20--------24--------------------------|
|-------------------------------------------------------------------------|
|-----------------22nd----------------------------------------------------|
|----------------frets-not------------------------------------------------|
|-----------------2nd-fret------------------------------------------------|

|-------------------------------------24p22p20----22b24-22b24~~~-(19/22)--|
|-24242424-000000-2222-00-24242424--20--------24--------------------------|
|-------------------------------------------------------------------------|
|-------------------------------------------------------------------------|
|-------------------------------------------------------------------------|
|-------------------------------------------------------------------------|

|--24b26-24b27-b24~~~~----------------------------------------------------|
|-------------------------------------------------------------------------|
|-------------------------------------------------------------------------|
|-------------------------------------------------------------------------|
|-------------------------------------------------------------------------|
|-------------------------------------------------------------------------|

Tap to rate this tab
# A B C D E F G H I J K L M N O P Q R S T U V W X Y Z