Song name
# A B C D E F G H I J K L M N O P Q R S T U V W X Y Z

Death - Mantas tab

Fig 1
|----------------------------------------------------------------|
|----------------------------------------------------------------|
|----------------------------------------------------------------|
|------------7---------------5---------------7--10-9---7---------|
|------------5---------------3---------------5---8-7---5---------|
|00000000000-----00000000000-----00000000000---------------------|
 ...........     ...........     ...........

Fig 2
|--------------------------------|
|--------------------------------|
|--------------------------------|
|3---------------5---------------|
|1---------------3---------------|
|--------------------------------|

Fig 3
|--------------------------------|
|--------------------------------|
|--------------------------------|
|------------7--------------7\5--|
|------------5--------------5\3--|
|00000000000-----00000000000-----|
 ...........     ...........

Fig 4
|--------------------------------|
|--------------------------------|
|--------------------------------|
|--------7---------------7-------|
|--------5---------------5-------|
|0--0--0---------0--0--0---------|
 .  .  .         .  .  .

Fig 5
|----------------|
|----------------|
|----------------|
|7--7--7-7-------|
|5--5--5-5-------|
|----------------|

Fig 1 x 2
Fig 2
Fig 3
Fig 2
Fig 1 x 2
Fig 2
Fig 4
Fig 2
Fig 1 x 2
Fig 2
Fig 4
Fig 2
Fig 1 x 2
Fig 2
Fig 3
Fig 2
Fig 1 x 2
Fig 2
Fig 3
Fig 2
Fig 1 x 2
Fig 2
Fig 3
Fig 2
Fig 4
Fig 2
Fig 1 x 3
Fig 2
Fig 3
Fig 2
Fig 1 x 2
Fig 2
Fig 4
Fig 2
Fig 4
Fig 2
Fig 5
Tap to rate this tab
# A B C D E F G H I J K L M N O P Q R S T U V W X Y Z