Song name
# A B C D E F G H I J K L M N O P Q R S T U V W X Y Z

Death - Crystal Mountain tab

Tuning: DGCFAD


Interlude (2:06)

    Gtr I
||-----19p14-19p15-19p14-19p12----------------------|
||o-12-------------------------19p15-19p14-19p15-19p|
||--------------------------------------------------|
||--------------------------------------------------|
||o-------------------------------------------------|
||--------------------------------------------------|
|
|   Gtr II
||-----12p=7-12p=8-12p=7-12p=5----------------------|
||o--5-------------------------12p=8-12p=7-12p=8-12p|
||--------------------------------------------------|
||--------------------------------------------------|
||o-------------------------------------------------|
||--------------------------------------------------|


                                                     3x
||-----19p14-19p15-19p14-19p12-----------------------||---||
||o-12-------------------------19p15-19p14-19p15-19-o||--o||
||---------------------------------------------------||---||
||---------------------------------------------------||---||
||o-------------------------------------------------o||--o||
||---------------------------------------------------||---||
|
|                                                    3x
||-----12p=7-12p=8-12p=7-12p=5-----------------------||---||
||o--5-------------------------12p=8-12p=7-12p=8-12-o||--o||
||---------------------------------------------------||---||
||---------------------------------------------------||---||
||o-------------------------------------------------o||--o||
||---------------------------------------------------||---||



Solo (2:25)
        PM|          PM------------------|
|-----------------|--------------------------------------------------------|
|-----------------|-------------------------14-16-14----14-----------------|
|-----------------|----------------13-15-16----------16----16-15-(15)------|
|------------11---|----------13-14-----------------------------------------|
|-11---13-14------|-13-14-16-----------------------------------------------|
|-----------------|--------------------------------------------------------|


|----------------16-|
|----------16-17----|
|-15-16-15----------|
|-------------------|
|-------------------|
|-------------------|


|-------18-19-18-16-16-18-|-19-18-16-18-16--------------------------|
|-17----------------------|----------------17-16-14-16-14-----------|
|----18-------------------|-------------------------------16-13-15--|
|-------------------------|-----------------------------------------|
|-------------------------|-----------------------------------------|
|-------------------------|-----------------------------------------|


|-16-------18-------|-19-------18-19-18s16-18s16-------------|
|-19b21----21b23----|-22b24----------------------17-14-16----|
|-------------------|----------------------------------------|
|-------------------|----------------------------------------|
|-------------------|----------------------------------------|
|-------------------|----------------------------------------|


|-------------------------|----------------------------------|
|-16s14-(14)--14s19-(19)--|-16-17-16-14-16-14----14----------|
|-------------------------|-------------------16----16-15----|
|-------------------------|----------------------------------|
|-------------------------|----------------------------------|
|-------------------------|----------------------------------|
Tap to rate this tab
# A B C D E F G H I J K L M N O P Q R S T U V W X Y Z