Song name
# A B C D E F G H I J K L M N O P Q R S T U V W X Y Z

Death - Overactive Imagination tab

#----------------------------------PLEASE NOTE---------------------------------#
#This file is the author's own work and represents their interpretation of the #
#song. You may only use this file for private study, scholarship, or research. #
#------------------------------------------------------------------------------#

OVERACTIVE IMAGINATION
As recorded by Death
(From the 1993 Album INDIVIDUAL THOUGHT PATTERNS)

Transcribed by Jerad Yarborough wordman27@yahoo.com
	

Words and Music by Chuck Schuldiner

Gtr I (D G C F A D) - 'Chuck Schuldiner rhythm'
Gtr II (D G C F A D) - 'Chuck Schuldiner rhythm'
Gtr III (D G C F A D) - 'Chuck Schuldiner lead'
Gtr IV (D G C F A D) - 'Andy LaRocque lead'
Gtr V (D G C F A D) - 'Lead harmonies'

 Intro
  Fast Metal Q=212
  N.C.                 N.C.
 5/8                  4/4                           2/4
  Gtr I
   PM       ~~~~~~~      PM--------|   PM--------|     PM--------|
   E  E  E  E  +E      E S S S S S S E S S S S S S   E S S S S S S
|------------------||------------------------------|---------------|
|------------------||o-----------------------------|---------------|
|-----------5--(5)-||------------------------------|---------------|
|-----5--6---------||------------------------------|---------------|
|--7---------------||o-----------------------------|---------------|
|------------------||--3-5-5-5-5-5-5-5-5-5-5-5-5-5-|-5-5-5-5-5-5-5-|
|
| Gtr II
|  PM       ~~~~~~~      PM--------|   PM--------|     PM--------|
|  E  E  E  E  +E      E S S S S S S E S S S S S S   E S S S S S S
|------------------||------------------------------|---------------|
|----------13-(13)-||o-----------------------------|---------------|
|----12-13---------||------------------------------|---------------|
|-14---------------||------------------------------|---------------|
|------------------||o-----------------------------|---------------|
|------------------||--3-5-5-5-5-5-5-5-5-5-5-5-5-5-|-5-5-5-5-5-5-5-|


 4/4
                          PM
   E  E  E  E  +E   E  E  E
|---------------------------|
|---------------------------|
|---------------------------|
|-----------9--(9)-10--9----|
|--7--9-10---------------10-|
|---------------------------|
|
|  E  E  E  E  +E   E  E  E
|---------------------------|
|----------12-(12)-13-12----|
|----11-12---------------12-|
|-14------------------------|
|---------------------------|
|---------------------------|


                                1.
                                5/8
    PM--------|    PM------------|         ~~~~~~~
  E S S S S S S  E S S S S S S    E  E  E  E  +E
|------------------------------|--------------------||
|------------------------------|-------------------o||
|------------------------------|-----------5--(5)---||
|------------------------------|-----5--6-----------||
|-7-8-8-8-8-8-8--8-8-8-8-8-8-8-|--7----------------o||
|------------------------------|--------------------||
|
|   PM--------|    PM------------|         ~~~~~~~
| E S S S S S S  E S S S S S S    E  E  E  E  +E
|------------------------------|--------------------||
|------------------------------|----------13-(13)--o||
|------------------------------|----12-13-----------||
|---------------10-------------|-14-----------------||
|-7-8-8-8-8-8-8--8-8-8-8-8-8-8-|-------------------o||
|------------------------------|--------------------||


   Verse
    2.
    $
    N.C.
   7/8               5/4                                     7/8
    Gtrs I, II
          PM    PM    PM----------------------------------|         PM    PM
    S S E E E E E E   S S S S S S S S S S S S S S S S S S E   S S E E E E E E
||------------------|---------------------------------------|-----------------|
||o-----------------|---------------------------------------|-----------------|
||------------------|---------------------------------------|-----------------|
||------------------|---------------------------------------|-----------------|
||o-3p2p0---5-2-----|---------------------------------------|-3p2p0---5-2-----|
||--------3-----0---|-0-0-0-0-0-0-0-0-0-0-0-0-0-0-0-0-0-0-0-|-------3-----3---|


  1.,2.,3.                                    4.
                                              N.C.
 5/4                                         3/4
  PM----------------------------------------------------------------|
  S S S S S S S S S S S S S S S S S S S S  4x S S S S S S S S S S S S
|------------------------------------------||-------------------------|
|-----------------------------------------o||-------------------------|
|------------------------------------------||-------------------------|
|------------------------------------------||-------------------------|
|-------------------------0-0-0-0-0-0-0-0-o||-------------------------|
|-3-3-3-3-3-3-3-3-3-3-3-3------------------||-3-3-3-3-3-3-3-3-3-3-3-3-|


   Pre-Chorus
    N.C.
   4/4
    PM------------|     PM--------------|
    S S S S S S S S E E S S S S   S S S S E E E E E E
||------------------------------|---------------------|
||o-----------------------------|---------------------|
||------------------------------|---------------------|
||------------------5h7---------|---------5h7-7s8-8s7-|
||o-0-0-0-0-0-0-0-0-----0-0-0-0-|-0-0-0-0-------------|
||------------------------------|---------------------|


  PM------------|     PM----|               ~
  S S S S S S S S E E S S S S   E E E E E E Q
|-----------------------------|-----------------||
|-----------------------------|----------------o||
|-----------------------------|-----------------||
|-----------------5h7---------|-5h7-7s8---------||
|-0-0-0-0-0-0-0-0-----0-0-0-0-|---------6p5----o||
|-----------------------------|-------------6---||


    N.C.
    Gtr I
    PM------------|     PM--------------|
    S S S S S S S S E E S S S S   S S S S E E E  E  E E
||------------------------------|-----------------------|
||o-----------------------------|-----------------------|
||------------------------------|-----------------------|
||------------------5h7---------|---------5h7-7s=8--8s7-|
||o-0-0-0-0-0-0-0-0-----0-0-0-0-|-0-0-0-0---------------|
||------------------------------|-----------------------|
|
|   Gtr II
|   PM------------|     PM--------------|
|   S S S S S S S S E E S S S S   S S S S E E E  E  E E
||------------------------------|-----------------------|
||o-----------------------------|-----------------------|
||------------------7h9---------|---------7h9-9s10-10s9-|
||------------------------------|-----------------------|
||o-0-0-0-0-0-0-0-0-----0-0-0-0-|-0-0-0-0---------------|
||------------------------------|-----------------------|


                                      To Coda
  PM------------|     PM----|                ~
  S S S S S S S S E E S S S S   E E E  E E E Q
|-----------------------------|------------------||
|-----------------------------|-----------------o||
|-----------------------------|------------------||
|-----------------5h7---------|-5h7-7s=8---------||
|-0-0-0-0-0-0-0-0-----0-0-0-0-|----------6p5----o||
|-----------------------------|--------------6---||
|
| PM------------|     PM----|                ~
| S S S S S S S S E E S S S S   E E E  E E E Q
|-----------------------------|------------------||
|-----------------------------|-----------------o||
|-----------------7h9---------|-7h9-9s10---------||
|-----------------------------|----------8p7-----||
|-0-0-0-0-0-0-0-0-----0-0-0-0-|--------------8--o||
|-----------------------------|------------------||


   Chorus
    Slower Q=144
    N.C.
    Gtrs I, II
    PM--|   PM------|   PM    PM--|   PM|   PM----|
    |-3-| |-3-| |-3-| |-3-|   |-3-| |-3-| |-3-| |-3-|
    E E E E E E E E E E E E   E E E E E E E E E E E E
||--------------------------|-------------------------|
||o-------------------------|-------------------------|
||--------------------------|-----------------------7-|
||--------------------------|-------------7-----------|
||o-------7-----------7---8-|-------7-----------5-5---|
||--0-0-0---0-0-0-0-0---0---|-0-0-0---0-0---5-5-------|


  PM--|   PM------|   PM    PM--|   PM|   PM--|   PM
  |-3-| |-3-| |-3-| |-3-|   |-3-| |-3-| |-3-| |-3-|
  E E E E E E E E E E E E   E E E E E E E E E E E E
|-------------------------|----------------------------||
|-------------------------|---------------------------o||
|-------------------------|----------------------------||
|-------------------------|-------------7-------5------||
|-------7-----------7---8-|-------7-------------------o||
|-0-0-0---0-0-0-0-0---0---|-0-0-0---0-0---5-5-3---3----||


 Lead: Schuldiner
  N.C.
  Gtr III
   ~~~                                                ~~~~~~~~~~~~~
                        |--3---|            |--3---|
   H.                  +E   E  E    Q      +E   E  E  H
|--------------------------------|--------------------------------|
|--------------------------------|--------------------------------|
|-----------------------------11-|-12-----(12)-11h12p11-----------|
|-14------------------(14)-14----|--------------------------------|
|--------------------------------|--------------------------------|
|--------------------------------|--------------------------------|
|
| Gtrs I, II
|  PM---|   PM------|       PM      PM--|       PM|     PM----|
|  |-3--| |-3-| |-3-|   |--3---|    |-3-|   |--3---|  |-3-| |-3-|
|  E  E E E E E E E E   E   E  E    E E E   E   E  E  E E E E E E
|--------------------------------|--------------------------------|
|--------------------------------|--------------------------------|
|--------------------------------|------------------------------7-|
|--------------------------------|--------------------7-----------|
|---------7-------------7------8-|----------7---------------5-5---|
|--0--0-0---0-0-0-0-0-------0----|--0-0-0-------0--0----5-5-------|


 ~~~~
                              |--3--|  |--3--|  |--3--|  |--3--|
   W                          E  E  E  E  E  E  E  E  E  E  E  E
|--------------------------|-12-13-12-------------------------------|
|--------------------------|----------15-13-12----------------------|
|-16-----------------------|-------------------14-------------------|
|--------------------------|----------------------15-14-12----------|
|--------------------------|-------------------------------15-14----|
|--------------------------|----------------------------------------|
|
|  PM--|   PM------|   PM     PM---|      PM|      PM---|      PM
|  |-3-| |-3-| |-3-| |-3-|    |--3--|  |--3--|  |--3--|  |--3--|
|  E E E E E E E E E E E E    E  E  E  E  E  E  E  E  E  E  E  E
|--------------------------|----------------------------------------|
|--------------------------|----------------------------------------|
|--------------------------|----------------------------------------|
|--------------------------|--------------------7-----------5-------|
|--------7-----------7---8-|-----------7----------------------------|
|--0-0-0---0-0-0-0-0---0---|--0--0--0-----0--0-----5--5--3-----3----|


  E5                        F#5            G5
                                                               ~~~~
  |-3--| |--3--|  |---3---|   |---3----|    |--3--|  |--3--|
  E  E E E  E  E  E  +E   E  +E   +E   E    E  E  E  E  E  E  +H
|----------------12-(12)s15-(15)-(15)----|----------------------------------|
|-------------12----------------------15-|-12-13-12-17----------------------|
|--------9-12----------------------------|-------------16-14-(14)-----------|
|------9---------------------------------|----------------------------------|
|-7-10-----------------------------------|----------------------------------|
|----------------------------------------|----------------------------------|
|
|        PM--------------|                           PM-------------------|
|        |--3--|  |---3---|                          |--3--|   |-3--| |-3-|
| Q      E  E  E  E   E   E   Q             Q        E  E  E   E  E E E E E
|----------------------------------------|----------------------------------|
|----------------------------------------|----------------------------------|
|----------------------------------------|----------------------------------|
|----------------------------------------|----------------------------------|
|-2---------------------------4----------|--5-------------------------------|
|-0------0--0--0--0---0---0---2----------|--3--------3--3--3---3--3-3-3-3-3-|


  A5                        B5
  |-3--| |--3--|  |---3---|   |---3----|
  E  E E E  E  E  E  +E   E  +E   +E   E
|----------------12-(12)s15-(15)-(15)-14-|
|-------------12-------------------------|
|--------9-12----------------------------|
|------9---------------------------------|
|-7-10-----------------------------------|
|----------------------------------------|
|
|        PM--------------|
|        |--3--|  |---3---|
| Q      E  E  E  E   E   E   Q
|----------------------------------------|
|----------------------------------------|
|----------------------------------------|
|-2---------------------------4----------|
|-0------0--0--0--0---0---0---2----------|
|----------------------------------------|


  C5                            D5   E5                     F#5
                          ~~                   ~~~
   |----3-----|  |--3--|              |--3--|
   E  E  +S   S  E  E  E  H           E  E  E  H.
|-14-------------------------------|-----------------------------|
|----13-(13)p12-17-----------------|-17----17--------------------|
|------------------16-14-14--------|----16----16-----------------|
|----------------------------------|-----------------------------|
|----------------------------------|-----------------------------|
|----------------------------------|-----------------------------|
|
|                PM-----------|                PM---------|
|                |--3--|  |-3-|                |-3--| |-3-|
|  Q             E  E  E  E E E Q     Q        E  E E E E E Q
|----------------------------------|-----------------------------|
|----------------------------------|-----------------------------|
|----------------------------------|-----------------------------|
|--5----------------------------7--|-----------------------------|
|--3-------------3--3--3--3-3-3-5--|--2---------------------4----|
|----------------------------------|--0--------0--0-0-0-0-0-2----|


  G5
             ~~~~
   |--3--|
   E  E  E   H.
|-------------------------------|
|-19-17-----17------------------|
|-------16-(16)-----------------|
|-------------------------------|
|-------------------------------|
|-------------------------------|
|
|            PM---------------|
|            |-3--| |-3-| |-3-|
|  Q         E  E E E E E E E E
|-------------------------------|
|-------------------------------|
|-------------------------------|
|-------------------------------|
|--5----------------------------|
|--3---------3--3-3-3-3-3-3-3-3-|


  A5                         B5         C5                      D5
                                                   ~~~~
   |--3--|  |--3--|  |--3--|  |--3--|    |--3--|
   E  E  E  E  E  E  E  E  E  E  E  E    E  E  E  +H.
|-------------------------------------|------------------------------|
|-17----------------------------------|------------------------------|
|----16----16-17-16-14----------------|------------------------------|
|-------14-------------17-16-14-13----|-14---------------------------|
|----------------------------------15-|----15-14-(14)----------------|
|-------------------------------------|------------------------------|
|
|           PM------------|                        PM---------|
|           |--3--|  |--3--|                       |-3--| |-3-|
|  Q        E  E  E  E  E  E  Q          Q         E  E E E E E Q
|-------------------------------------|------------------------------|
|-------------------------------------|------------------------------|
|-------------------------------------|------------------------------|
|--2--------------------------4-------|--5----------------------7----|
|--0--------0--0--0--0--0--0--2-------|--3---------3--3-3-3-3-3-5----|
|-------------------------------------|------------------------------|


  E5                                                   F#5
   |-----5-----|  |-------5-------|  |-------5-------|  |------6-------|
   S  S  S  S  S  S  S    S  S    S  S  S    S  S    S  S  S  S  S  S  S
|------------------------------------------------------------------------|
|------------------------------------------------------------------------|
|-16-17-16-17-16-14-16---17-16---14-17-16---14-16---14-16-17-16-14-16-14-|
|------------------------------------------------------------------------|
|------------------------------------------------------------------------|
|------------------------------------------------------------------------|
|
|                 PM------------------------------|
|                 |-----3------|     |-----3------|
|  Q              E    E       E     E    E       E     Q
|------------------------------------------------------------------------|
|------------------------------------------------------------------------|
|------------------------------------------------------------------------|
|------------------------------------------------------------------------|
|--2----------------------------------------------------4----------------|
|--0--------------0----0-------0-----0----0-------0-----2----------------|


  G5
                                         ~~~~
   |------6-------|  |-------5-------|
   S  S  S  S  S  S  S  S    S  S    S   H
|-------------------------------------------------------|
|-------------------------------------------------------|
|-16-17-16-14-16-14-17-16---14-16---14-[16]-------------|
|-------------------------------------------------------|
|-------------------------------------------------------|
|-------------------------------------------------------|
|
|                    PM-----------------------------|
|                    |-----3------|      |-3--| |-3-|
|  Q                 E    E       E      E  E E E E E
|-------------------------------------------------------|
|-------------------------------------------------------|
|-------------------------------------------------------|
|-------------------------------------------------------|
|--5----------------------------------------------------|
|--3-----------------3----3-------3------3--3-3-3-3-3---|


  A5                       B5   C5                  D5
  Gtr III
                     ~~                       ~~
   |--3--|  |--3--|              |---3---|
   E  E  E  E  E  E  H           Q  Q    Q    H
|-----------------------------|------------------------|
|-12-13-12--------------------|------------------------|
|----------14-12-11-11--------|----11---12---14--------|
|-----------------------------|-14---------------------|
|-----------------------------|------------------------|
|-----------------------------|------------------------|
|
| Gtr V
|                    ~~                       ~~
|  |--3--|  |--3--|              |---3---|
|  E  E  E  E  E  E  H           Q  Q    Q    H
|-----------------------------|------------------------|
|-----------------------------|------------------------|
|--9-10--9--------------------|------------------------|
|----------12-10--9--9--------|-----9---10---12--------|
|-----------------------------|-12---------------------|
|-----------------------------|------------------------|
|
| Gtrs I, II
|           PM-----------|            PM----------|
|           |--3--|  |-3-|            |-3--|  |-3-|
|  Q        E  E  E  E E E Q     Q    E  E E  E E E Q
|-----------------------------|------------------------|
|-----------------------------|------------------------|
|-----------------------------|------------------------|
|--2-----------------------4--|--5------------------7--|
|--0--------0--0--0--0-0-0-2--|--3----3--3-3--3-3-3-5--|
|-----------------------------|------------------------|


  E5                      F#5  G5
                   ~~~~                         ~~~~
         |--3--|                      |--3--|
   E  E  E  E  E  +H            E  E  E  E  E  +H
|-------17-------------------|-------17------------------------|
|-19-20----20-19-(19)--------|-19-20----20-19-(19)-------------|
|----------------------------|---------------------------------|
|----------------------------|---------------------------------|
|----------------------------|---------------------------------|
|----------------------------|---------------------------------|
|
|                  ~~~~                         ~~~~
|        |--3--|                      |--3--|
|  E  E  E  E  E  +H            E  E  E  E  E  +H
|----------------------------|---------------------------------|
|----------------------------|---------------------------------|
|----------------------------|---------------------------------|
|--9-10-12-10--9--(9)--------|--9-10-12-10--9--(9)-------------|
|----------------------------|---------------------------------|
|----------------------------|---------------------------------|
|
|        PM-------------|             PM-------------------|
|        |--3--|   |-3--|             |--3--|   |-3--| |-3-|
|  Q     E  E  E   E  E E Q     Q     E  E  E   E  E E E E E
|----------------------------|---------------------------------|
|----------------------------|---------------------------------|
|----------------------------|---------------------------------|
|----------------------------|---------------------------------|
|--2----------------------4--|--5------------------------------|
|--0-----0--0--0---0--0-0-2--|--3-----3--3--3---3--3-3-3-3-3---|


  A5                                                     B5
  Gtr III
   |------6-------|  |-------5-------|  |------6-------|  |------6-------|
   S  S  S  S  S  S  S  S    S  S    S  S  S  S  S  S  S  S  S  S  S  S  S
|--------------------------------------------------------------------------|
|-19-19-20-19-17-16-17-16---17-19---20-20-19-17-16-17-16-------------------|
|--------------------------------------------------------16-17-16-17-16-14-|
|--------------------------------------------------------------------------|
|--------------------------------------------------------------------------|
|--------------------------------------------------------------------------|
|
| Gtrs I, II
|                    PM----------------------------|
|                    |-----3------|     |-----3-----|
|  Q                 E    E       E     E     E     E     Q
|--------------------------------------------------------------------------|
|--------------------------------------------------------------------------|
|--------------------------------------------------------------------------|
|--2------------------------------------------------------4----------------|
|--0-----------------0----0-------0-----0-----0-----0-----2----------------|
|--------------------------------------------------------------------------|


  C5                                            D5
                                          ~~
   |--------7--------|  |------6-------|
   S  S  S  S  S  S  S  S  S  S  S  S  S  H
|--------------------------------------------------||
|--------------------------------------------------||
|-16-----------------------------------------------||
|----17-16-17-16-14-13-16-13-14-13-----------------||
|----------------------------------15-12-14--------||
|--------------------------------------------------||
|
|                       PM--------------------|
|                       |-----3-----|     |-3-|
|  Q                    E     E     E     E E E Q
|--------------------------------------------------||
|--------------------------------------------------||
|--------------------------------------------------||
|--5--------------------------------------------7--||
|--3--------------------3-----3-----3-----3-3-3-5--||
|--------------------------------------------------||


  Original Tempo Q=212
  N.C.
 6/4
    >
    ~~~~
   +W.
|-----------------------------|
|-----------------------------|
|-----------------------------|
|-----------------------------|
|-(14)------------------------|
|-----------------------------|
|
|   E  E E  E E  E E E E E Q
|-----------------------------|
|-----------------------------|
|---9--8---10-9----9-8--------|
|--------9------10-----9------|
|-----------------------------|
|-----------------------------|


    N.C.                         N.C.
                                5/4
    W                 H          W                 Q
||----------------------------||----------------------|
||o--------------------------o||----------------------|
||----------------------------||----------------------|
||----------------------------||----------------------|
||o--------------------------o||----------------------|
||----------------------------||----------------------|
|
|                                                  ~
|   E E E  E E  E E E E E Q      E E E  E E  E E E Q
||----------------------------||----------------------|
||o--------------------------o||----------------------|
||--9-8---10-9----9-8---------||-9-8---10-9----9-8----|
||------9------10-----9-------||-----9------10-----9--|
||o--------------------------o||----------------------|
||----------------------------||----------------------|


   Bridge
    N.C.
   4/4                       5/4
    Gtrs I, II
      PM------|   PM------|       PM      PM    ~
    E S S S S E E S S S S E   E E E  E E  E E E Q
||--------------------------|----------------------|
||o-------------------------|----------------------|
||--------------------------|-9-8---10-9----9-8----|
||--7-----------9-----------|-----9------10-----9--|
||o---0-0-0-0-0---0-0-0-0-0-|----------------------|
||--------------------------|----------------------|


 4/4                        5/4
     PM------|   PM------|       PM      PM    ~
   E S S S S E E S S S S E   E E E  E E  E E E Q   4x
|--------------------------|-----------------------||
|--------------------------|----------------------o||
|--------------------------|-9-8---10-9----9-8-----||
|-10-----------9-----------|-----9------10-----9---||
|----6-6-6-6-6---6-6-6-6-6-|----------------------o||
|--------------------------|-----------------------||


  Q=152
  N.C.
 4/4
  Gtr I
  |-3-| |-3-| |-3-| |-3-|   |-3-| |-3-| |-3-| |-3-|
  E E E E E E E E E E E E   E E E E E E E E E E E E
|-------------------------|-------------------------||
|-------------------------|-------------------------||
|-------------------------|-------------------------||
|-----6-----------6-------|-----6-------------------||
|-6-7---9-7-6-6-7---9-7-6-|-6-7---9-7-6-9-7-6-9-7-6-||
|-------------------------|-------------------------||
|
| Gtr II
| |-3-| |-3-| |-3-| |-3-|   |-3-| |-3-| |-3-| |-3-|
| E E E E E E E E E E E E   E E E E E E E E E E E E
|-------------------------|-------------------------||
|-------------------------|-------------------------||
|-----6-----------6-------|-----6-------------------||
|-6-7---9-7-6-6-7---9-7-6-|-6-7---9-7-6-9-7-6-9-7-6-||
|-------------------------|-------------------------||
|-------------------------|-------------------------||


 Lead: LaRocque
  N.C.
  Gtr IV
  PM---|                                                ~~
  |--3--|  |-3--| |---3---| |--3---|     |----3----|
  E  E  E  E E  E S  S E  E E  E   E     Q    Q    Q    Q      E    +E
|-------------------------------------|-----------------------16---(16)\---|
|-------------------------------------|-13---14---16-----------------------|
|------------9-13-9h11p9----9---------|----------------13------------------|
|---------11-------------13---11------|------------------------------------|
|------11------------------------(11)-|------------------------------------|
|-9-12--------------------------------|------------------------------------|
|
| Gtr V
|                                                       ~~
|                                        |----3----|
| W                                      Q    Q    Q    Q      E    +E
|-------------------------------------|-----------------------21---(21)\---|
|-------------------------------------|-16---17---19-----------------------|
|-------------------------------------|----------------17------------------|
|-------------------------------------|------------------------------------|
|-------------------------------------|------------------------------------|
|-------------------------------------|------------------------------------|
|
| Gtrs I, II
| PM-----------|            PM------------------------------|    PM------|
| |--3--|  |-3--| |---3---| |--3---|     |-3--| |-3--|  |-3-|  |----3----|
| E  E  E  E E  E E    E  E E  E   E     E E  E E  E E  E E E  E E       E
|-------------------------------------|------------------------------------|
|-------------------------------------|------------------------------------|
|-------------------------------------|------------------------------------|
|-----------------4----5--4-----------|------------------------4-----------|
|-4--4--4--4-4--4-----------7--6---4--|--3-3--3-3--3-3--4-6-7----7-------6-|
|-------------------------------------|------------------------------------|


   ~~                                     ~~~~~~~~~~~      ~~
           |----3----|  |-3--|  |-3--|            |--3--|
   Q      +E   S  S  E  Q    E  Q    E    Q      +Q     E  H
|--------------------------------------|-------------------------------|
|--------------------------------------|-------------------------------|
|--------------------------------------|-------------------------------|
|-14-----(14)-13h14p13-11---13-14---11-|-13-----(13)---10--------------|
|--------------------------------------|------------------11-----------|
|--------------------------------------|-------------------------------|
|
|  ~~                                     ~~~~~~~~~~~      ~~
|          |----3----|  |-3--|  |-3--|            |--3--|
|  Q      +E   S  S  E  Q    E  Q    E    Q      +Q     E  H
|--------------------------------------|-------------------------------|
|--------------------------------------|-------------------------------|
|-13-----(13)-11h13p11------11-13------|-11-----(11)-------------------|
|----------------------14-----------14-|---------------13-10-----------|
|--------------------------------------|-------------------------------|
|--------------------------------------|-------------------------------|
|
|  PM---------------|           PM-----------------------------|   PM|
|  |-3-|   |----3----|  |-3--|  |-3--|    |-3-|   |--3--|  |-3-| |-3-|
|  E E E   E   E     E  E E  E  E E  E    E E E   E  E  E  E E E E E E
|--------------------------------------|-------------------------------|
|--------------------------------------|-------------------------------|
|--------------------------------------|-------------------------------|
|-----------------------4-5--4---------|-------------------------4-----|
|--4-4-4---4---4-----4----------7-6--4-|--3-3-3---3--3--3--4-6-7---7-6-|
|--------------------------------------|-------------------------------|


  Gtr IV
   |--3--|  |--3--|  |--3--|  |--3--|
   E  E  E  E  E  E  E  E  E  E  E  E
|-16-15-14-13-14-15-16-15-14-15-16-15-|
|-------------------------------------|
|-------------------------------------|
|-------------------------------------|
|-------------------------------------|
|-------------------------------------|
|
| Gtrs I, II
|  PM------------|            PM-------
|  |--3--|  |--3--|  |--3--|  |--3--|
|  E  E  E  E  E  E  E  E  E  E  E  E
|-------------------------------------|
|-------------------------------------|
|-------------------------------------|
|--------------------4--5--4----------|
|--4--4--4--4--4--4-----------7--6--4-|
|-------------------------------------|


                  ~~~~~~~~~~~~~~~~
   |--3--|  |--3--|
   E  E  E  E  E  E  +Q       +E     a  a  E
|-14-15-16-15-14--------------------------12---|
|----------------13-(13)-----(13)------13------|
|-----------------------------------13---------|
|----------------------------------------------|
|----------------------------------------------|
|----------------------------------------------|
|
|--------------------------|      PM---------|
|  |--3--|  |--3--|   |-3--|   |------3------|
|  E  E  E  E  E  E   E  E E   E  E          E
|----------------------------------------------|
|----------------------------------------------|
|----------------------------------------------|
|------------------------------4---------------|
|--3--3--3--3--3--3---4--6-7------7----------6-|
|----------------------------------------------|


   |----------7----------|  |--3--|  |--3--|  |--3--|  |--3--|  |------6-------|
   S  S  S    S  S    S  S  S  S  S  S  S  S  S  S  S  S  S  S  S  S  S  S  S  S
|-17-12-14---12------------------------------------------------------------------|
|---------------16---14-13-16-14-13----------------------------------------------|
|-----------------------------------16-14-13-16-14-13----------------------------|
|-----------------------------------------------------16-14-13-16-14-13----13h14-|
|-----------------------------------------------------------------------16-------|
|--------------------------------------------------------------------------------|
|
|  PM----------------------------------|                        PM---------|
|  |-------3-------|        |-----3-----|     |-----3-----|     |-----3-----|
|  E       E       E        E     E     E     E     E     E     E     E     E
|--------------------------------------------------------------------------------|
|--------------------------------------------------------------------------------|
|--------------------------------------------------------------------------------|
|---------------------------------------------4-----5-----4----------------------|
|--4-------4-------4--------4-----4-----4-----------------------7-----6-----4----|
|--------------------------------------------------------------------------------|


   |-------5-------|  |----------7----------|  |--3--|  |--3--|  |------6-------|
   S  S    S  S    S  S  S  S    S  S    S  S  S  S  S  S  S  S  S  S  S  S  S  S
|---------------------------------------------------------------------------------||
|---------------------------------------------------------------------------------||
|--------------------13h14p13h==14-16---14-13-------------------------------------||
|-13-14---13-14---16--------------------------16-14-13-16-14-13-13-14-13h14p13----||
|------------------------------------------------------------------------------16-||
|---------------------------------------------------------------------------------||
|
|  PM-----------------------------------------------------|            PM---|
|  |-----3------|     |-------3-------|        |-----3-----|     |-----3-----|
|  E    E       E     E       E       E        E     E     E     E     E     E
|---------------------------------------------------------------------------------||
|---------------------------------------------------------------------------------||
|---------------------------------------------------------------------------------||
|----------------------------------------------------------------4----------------||
|--3----3-------3-----3-------3-------3--------4-----6-----7-----------7-----6----||
|---------------------------------------------------------------------------------||


 Bridge
  F#5 N.C.                             E5   (G#)              F#5/B
 5/4                                       4/4
  Gtr IV
   ~~~~~~~
   Q   Q          H.                        W
|-----------------------------------------|-----------------------|
|-----------------------------------------|-----------------------|
|-13--11----------------------------------|-----------------------|
|-14--13----------------------------------|-----------------------|
|-----------------------------------------|-----------------------|
|-----------------------------------------|-----------------------|
|
| Gtr I
|                                           PM--------------|
|      |--3---|   |--3---|   |--3---|       |-3-| |-3-| |-3-|
|  Q   E  E   E   E  E   E   E  E   E  Q    E E E E E E E E E  Q
|-----------------------------------------|-----------------------|
|-----------------------------------------|-----------------------|
|-----------------------------------------|-----------------------|
|------3h=5--(5)--3h=5--(5)--3h=5--(5)-9--|-----------------------|
|--4----------3----------3----------3--7--|--------------------9--|
|--2--------------------------------------|-4-4-4-4-4-4-4-4-4--7--|
|
| Gtr II
|                                           PM--------------|
|      |--3---|   |--3---|   |--3---|       |-3-| |-3-| |-3-|
|  Q   E  E   E   E  E   E   E  E   E  Q    E E E E E E E E E  Q
|-----------------------------------------|-----------------------|
|-----------------------------------------|-----------------------|
|-----------------------------------------|-----------------------|
|-----10h12-(12)-10h12-(12)-10h12-(12)-9--|-------------------11--|
|--4---------10---------10---------10--7--|--------------------9--|
|--2--------------------------------------|-4-4-4-4-4-4-4-4-4-----|


    N.C.                             E5
    Gtr I
     |--3---|   |--3---|   |--3---|
     E  E   E   E  E   E   E  E   E  Q
||--------------------------------------|
||o-------------------------------------|
||--------------------------------------|
||---3h=5--(5)--3h=5--(5)--3h=5--(5)-9--|
||o---------3----------3----------3--7--|
||--------------------------------------|
|
|   Gtr II
|    |--3---|   |--3---|   |--3---|
|    E  E   E   E  E   E   E  E   E  Q
||--------------------------------------|
||o-------------------------------------|
||--------------------------------------|
||--10h12-(12)-10h12-(12)-10h12-(12)-9--|
||o--------10---------10---------10--7--|
||--------------------------------------|


                                            D.S. al Coda
  (G#)              F#5/B   N.C.
                           3/4
  PM--------------|
  |-3-| |-3-| |-3-|          |--3---|   |--3---|   |--3---|
  E E E E E E E E E  Q       E  E   E   E  E   E   E  E   E
|------------------------||-----------------------------------||
|-----------------------o||-----------------------------------||
|------------------------||-----------------------------------||
|------------------------||--3h=5--(5)--3h=5--(5)--3h=5--(5)--||
|--------------------9--o||---------3----------3----------3---||
|-4-4-4-4-4-4-4-4-4--7---||-----------------------------------||
|
| PM--------------|
| |-3-| |-3-| |-3-|          |--3---|   |--3---|   |--3---|
| E E E E E E E E E  Q       E  E   E   E  E   E   E  E   E
|------------------------||-----------------------------------||
|-----------------------o||-----------------------------------||
|------------------------||-----------------------------------||
|-------------------11---||-10h12-(12)-10h12-(12)-10h12-(12)--||
|--------------------9--o||--------10---------10---------10---||
|-4-4-4-4-4-4-4-4-4------||-----------------------------------||


   Outro-Chorus
    Q=144
    &
    N.C.
   4/4
    Gtrs I, II
    PM--|   PM------|   PM    PM--|   PM|   PM----|
    |-3-| |-3-| |-3-| |-3-|   |-3-| |-3-| |-3-| |-3-|
    E E E E E E E E E E E E   E E E E E E E E E E E E
||--------------------------|-------------------------|
||o-------------------------|-------------------------|
||--------------------------|-----------------------7-|
||--------------------------|-------------7-----------|
||o-------7-----------7---8-|-------7-----------5-5---|
||--0-0-0---0-0-0-0-0---0---|-0-0-0---0-0---5-5-------|


  PM--|   PM------|   PM    PM--|   PM|   PM--|   PM
  |-3-| |-3-| |-3-| |-3-|   |-3-| |-3-| |-3-| |-3-|
  E E E E E E E E E E E E   E E E E E E E E E E E E
|-------------------------|--------------------------||
|-------------------------|-------------------------o||
|-------------------------|--------------------------||
|-------------------------|-------------7-------5----||
|-------7-----------7---8-|-------7-----------------o||
|-0-0-0---0-0-0-0-0---0---|-0-0-0---0-0---5-5-3---3--||



Duration Legend
---------------
W - whole; H - half; Q - quarter; E - 8th; S - 16th; T - 32nd; X - 64th; a - acciaccatura
+ - note tied to previous; . - note dotted; .. - note double dotted
Uncapitalized letters represent notes that are staccato (1/2 duration)
Irregular groupings are notated above the duration line
Duration letters will always appear directly above the note/fret number it represents the
duration for.  Duration letters with no fret number below them represent rests.  Multi-
bar rests are notated in the form Wxn, where n is the number of bars to rest for.  Low
melody durations appear below the staff

Tablature Legend
----------------
 h   - hammer-on
 p   - pull-off
 b   - bend
 pb  - pre-bend
 r   - bend release (if no number after the r, then release immediately)
 /\  - slide into or out of (from/to "nowhere")
 s   - legato slide
 S   - shift slide
 - natural harmonic
[n]  - artificial harmonic
n(n) - tapped harmonic
 ~   - vibrato
 tr  - trill
 T   - tap
 TP  - trem. picking
 PM  - palm muting
\n/  - tremolo bar dip; n = amount to dip
 \n  - tremolo bar down
 n/  - tremolo bar up
/n\  - tremolo bar inverted dip
 =   - hold bend; also acts as connecting device for hammers/pulls
 <> - volume swell (louder/softer)
 x   - on rhythm slash represents muted slash
 o   - on rhythm slash represents single note slash

Misc Legend
-----------
 |  - bar
||  - double bar
||o - repeat start
o|| - repeat end
*|  - double bar (ending)
 :  - bar (freetime)
 $  - Segno
 &  - Coda
Tempo markers -  = BPM(8/16=s8/s16), where s8 = swing 8ths, s16 = swing 16ths

Tap to rate this tab
 
# A B C D E F G H I J K L M N O P Q R S T U V W X Y Z