Song name
# A B C D E F G H I J K L M N O P Q R S T U V W X Y Z

Death - Sacred Serenity tab

#----------------------------------PLEASE NOTE---------------------------------#
#This file is the author's own work and represents their interpretation of the #
#song. You may only use this file for private study, scholarship, or research. #
#------------------------------------------------------------------------------#

SACRED SERENITY
As recorded by Death
(From the 1995 Album SYMBOLIC)

Transcribed by Mikko Leimu [Kheimos]
	

Words and Music by Chuck Schuldiner

E5VII
x 7 9 x x x
	
F5VIII
x 8 10 x x x
	
G5X
x 10 12 x x x
	
D5V
x 5 7 x x x

E5/A
5 7 9 x x x
	
D5/G
3 5 7 x x x
	
F5/Bb
x 1 3 5 x x
	
C5/F
1 3 5 x x x

E5
0 2 x x x x
	
F5
1 3 x x x x

Gtr I (D G C F A D) - 'Gtr I'
Gtr II (D G C F A D) - 'Gtr II'
Gtr III (D G C F A D) - 'Lead'
Gtr IV (D G C F A D) - 'Clean tone'

 Intro
  Moderate Metal Q=135
  N.C.          E5VII
 4/4
                Gtrs I, II
  W              W
                 |
                 /

                Gtr III
                 PM----------------------------------------------
  Wx4            S  S  S  S  S  S  S  S  S  S  S  S  S  S  S  S
|------------||-------------------------------------------------|
|------------||-------------------------------------------------|
|------------||-17-17-16-14-------------17-17-16-14-------------|
|------------||-------------17-16-14-14-------------17-16-14-14-|
|------------||-------------------------------------------------|
|------------||-------------------------------------------------|


  F5VIII
   W
   |
   /

 ----------------------------------------------|
   S  S  S  S  S  S  S  S  S  S  S  S  S  S  S  S
|-------------------------------------------------|
|-------------------------------------------------|
|-17-17-16-14-------------17-17-16-14-------------|
|-------------17-16-14-14-------------17-16-14-14-|
|-------------------------------------------------|
|-------------------------------------------------|


  G5X
   W
   |
   /

   PM----------------------------------------------
   S  S  S  S  S  S  S  S  S  S  S  S  S  S  S  S
|-------------------------------------------------|
|-------------------------------------------------|
|-17-16-14-14-------------17-16-14-14-------------|
|-------------17-16-14-14-------------17-16-14-14-|
|-------------------------------------------------|
|-------------------------------------------------|


  F5VIII                                            E5VII
   W                                                 W
   |                                                 |
   /                                                 /

 ------------------------------------------------------------------------------------------------|
   S  S  S  S  S  S  S  S  S  S  S  S  S  S  S  S    S  S  S  S  S  S  S  S  S  S  S  S  S  S  S  S
|-------------------------------------------------|-------------------------------------------------|
|-------------------------------------------------|-------------------------------------------------|
|-17-16-14-14-------------17-16-14-14-------------|-17-16-14-14-------------17-17-16-14-------------|
|-------------17-16-14-14-------------17-16-14-14-|-------------17-16-14-14-------------17-16-14-14-|
|-------------------------------------------------|-------------------------------------------------|
|-------------------------------------------------|-------------------------------------------------|


  F5VIII                                            D5V
   W                                                 W
   |                                                 |
   /                                                 /

   PM---|      PM--------------------------------------------------------------------------|
   S  S  S  S  S  S  S  S  S  S  S  S  S  S  S  S    S  S  S  S  S  S  S  S  S  S  S  S  S  S  T  T  S
|-------------------------------------------------|----------------------------------------------------|
|-------------------------------------------------|----------------------------------------------------|
|-17-16-14-14-------------17-17-16-14-------------|-17-16-14-14-------------17-16-14-14-------17-17-14-|
|-------------17-16-14-14-------------17-16-14-14-|-------------17-16-14-14-------------17-16----------|
|-------------------------------------------------|----------------------------------------------------|
|-------------------------------------------------|----------------------------------------------------|


  E5VII                     F5VIII
   W                         W
   |                         |
   /                         /

   ~~~~~~~~~~                ~~~~~~~~~~
   H     +Q.    +S   T  T    H     +Q.    +S   T  T
|-------------------------|----------------------------|
|-------------------------|----------------------------|
|-16----(16)---(16)-17-16-|-17----(17)---(17)-16-14----|
|-------------------------|----------------------------|
|-------------------------|----------------------------|
|-------------------------|----------------------------|


  E5VII                     D5V         E5VII
   W                         W           W                  +W
   |                         |           |                   |
   /                         /           /                   /

                             ~~                              ~~~~
   H     +Q.    +S   T  T    W           Q.    E  +H        +W
|-------------------------|-----------|------------------|---------|
|-------------------------|-----------|------------------|---------|
|-16----(16)---(16)-14-14-|-14--------|-16----16-(16)----|-(16)----|
|-------------------------|-----------|------------------|---------|
|-------------------------|-----------|------------------|---------|
|-------------------------|-----------|------------------|---------|


  E5/A                    D5/G
   W                       W
   |                       |
   /                       /

              ~~~~~~~            ~~~~~~~~~~
   E  +E   E  E  +H        S  S  Q.    +H
|-----------------------|---------------------|
|-----------------------|---------------------|
|-16-(16)s17-17-(17)----|-------14----(14)----|
|-----------------------|-16-17---------------|
|-----------------------|---------------------|
|-----------------------|---------------------|


  F5/Bb                      C5/F
    W                         W
    |                         |
    /                         /

    |--3--|  |-----3-----|    |--3--|  |--3--|
    Q  Q  Q  S  S  E  Q  Q    Q  Q  Q  Q  Q  Q
|--------17-17h20p17-------|---------------------|
|-----18-------------18-17-|-15-17-18-17-15------|
|-/17----------------------|----------------17---|
|--------------------------|---------------------|
|--------------------------|---------------------|
|--------------------------|---------------------|


  E5/A
   W
   |
   /

   ~~
            |--3--|  |------6-------|  |------6-------|
   Q   +E   S  S  S  S  S  S  S  S  S  S  S  S  S  S  S
|-------------------------------------------------------|
|----------18-18-18-17-15-17-15-13-15-13-12-------------|
|-16--(16)----------------------------------14-13-------|
|-------------------------------------------------15-12-|
|-------------------------------------------------------|
|-------------------------------------------------------|


  D5/G                                      N.C.
   H                +Q                       Q
   |                 |                       |
   /                 /                       x

   ~~
            |--3--|
   Q   +E   S  S  S  T  T  T  T  T  T  T  T  T  T  T  T  T  T  T  T
|----------------------------------------------------17-17-19-20-17-||
|----------17-17-17-18-18-17-17-15-15-17-17-18-18s21----------------||
|-------------------------------------------------------------------||
|-14--(14)----------------------------------------------------------||
|-------------------------------------------------------------------||
|-------------------------------------------------------------------||


 Pre-Verse
  F5            E5              F5              E5         N.C.
                  ~~~~~~~~~~~~~~                  ~~~~
   Q        +E    E   +E   +E    Q          +E    Q     E    E    E    E   E
|----------------17--(17)-(17)--17-------|-------17---(17)-(17)-(17)-(17)----|
|-20b22====(20)-(20)-(20)-(20)r-20b22====|=(20)-(20)---20---20---20---20r\---|
|----------------------------------------|-----------------------------------|
|----------------------------------------|-----------------------------------|
|----------------------------------------|-----------------------------------|
|----------------------------------------|-----------------------------------|
|
| Gtrs I, II
|  PM------|                     PM--------|                           ~~~~~
|  E     E   E    E   +Q         E     E     E    Q     E    E    E    Q
|----------------------------------------|-----------------------------------|
|----------------------------------------|-----------------------------------|
|----------------------------------------|-----------------------------------|
|----------------------------------------|-----------------------------------|
|--3--------------2---(2)--------3-------|--------2-----3----2---------------|
|--------1---1----0---(0)--------------1-|---1----0---------------4----3-----|


  F5        E5     F5          E5 N.C.
  W                        W
|------------------------|-----------------|
|------------------------|-----------------|
|------------------------|-----------------|
|------------------------|-----------------|
|------------------------|-----------------|
|------------------------|-----------------|
|
| PM------|        PM--------|        PM~
| e S S S S E +Q   e S S   S S Q  E E E Q
|------------------------|-----------------|
|------------------------|-----------------|
|------------------------|-----------------|
|------------------------|-----------------|
|-----------2-(2)--------|-----2--3-2------|
|-1-1-1-1-1-0-(0)--1-1-1-|-1-1-0------3-4--|


  $
  F5    E5     F5      E5 N.C.
  Gtrs I, II
  PM--|        PM----|          ~
  E E E E +Q   E E   E Q  E E E Q
|------------------|---------------|
|------------------|---------------|
|------------------|---------------|
|------------------|---------------|
|-3-----2-(2)--3---|---2--3-2------|
|---1-1-0-(0)----1-|-1-0------4-3--|


  F5          E5     F5            E5 N.C.
  PM--------|        PM----------|        PM~
  S S S S S S E +Q   S S S S   S S Q  E E E Q
|----------------------------|-----------------||
|----------------------------|-----------------||
|----------------------------|-----------------||
|----------------------------|-----------------||
|-------------2-(2)----------|-----2--3-2------||
|-1-1-1-1-1-1-0-(0)--1-1-1-1-|-1-1-0------3-4--||


 Verse
  F5    E5     F5      E5 N.C.       F5        E5     F5          E5 N.C.
  PM--|        PM----|               PM------|        PM--------|        PM~
  E E E E +Q   E E   E Q  E E E Q    e S S S S E +Q   e S S   S S Q  E E E Q
|------------------|---------------|------------------------|-----------------|
|------------------|---------------|------------------------|-----------------|
|------------------|---------------|------------------------|-----------------|
|------------------|---------------|------------------------|-----------------|
|-3-----2-(2)--3---|---2--3-2------|-----------2-(2)--------|-----2--3-2------|
|---1-1-0-(0)----1-|-1-0------4-3--|-1-1-1-1-1-0-(0)--1-1-1-|-1-1-0------3-4--|


  F5    E5     F5      E5 N.C.
  PM--|        PM----|
  E E E E +Q   E E   E Q  E E E Q
|------------------|---------------|
|------------------|---------------|
|------------------|---------------|
|------------------|---------------|
|-3-----2-(2)--3---|---2--3-2------|
|---1-1-0-(0)----1-|-1-0------4-3--|


  F5          E5     F5            E5 N.C.
  PM--------|        PM----------|          ~
  S S S S S S E +Q   S S S S   S S Q  E E E Q
|----------------------------|-----------------||
|----------------------------|-----------------||
|----------------------------|-----------------||
|----------------------------|-----------------||
|-------------2-(2)----------|-----2--3-2------||
|-1-1-1-1-1-1-0-(0)--1-1-1-1-|-1-1-0------3-4--||


 Interlude
  E5
  Gtrs I, II
  W                 +W                  +W                 +W
  |                  |                   |                  |
  /                  /                   /                  /

  Gtr III
                     ~~~~~~~~~~          ~~~~~~~~~~         ~~
  H    Q.    S  S    H     +Q.   S  S    H     +Q.   S S    W
|-----------------|-------------------|------------------|-------|
|-----------10h12h|=13----(13)---8h10h|=12----(12)---7h8h|=10----|
|-----------------|-------------------|------------------|-------|
|-----------------|-------------------|------------------|-------|
|-----------------|-------------------|------------------|-------|
|-----------------|-------------------|------------------|-------|


  F5
    W                    +W                  +W                 +W
    |                     |                   |                  |
    /                     /                   /                  /

    ~~~~~~~~~~~           ~~~~~~~~~~          ~~~~~~~~~~         ~~
   +H      +Q.    S  S    H     +Q.   S  S    H     +Q.   S S    W
|----------------------|-------------------|------------------|-------||
|-(10)----(10)---10h12h|=13----(13)---8h10h|=12----(12)---7h8h|=10----||
|----------------------|-------------------|------------------|-------||
|----------------------|-------------------|------------------|-------||
|----------------------|-------------------|------------------|-------||
|----------------------|-------------------|------------------|-------||


   Pre-Chorus
    N.C.
    Gtrs I, II
    PM-------------------------------
    S S S S S S S S S S S S S S S S
||----------------------------------|
||o---------------------------------|
||----------------------------------|
||----------------------------------|
||o-------------4-4-4-4-4-4-5-5-5-5-|
||--2-2-2-2-2-2---------------------|


 1.                                   2.
                                                              G5
 -----------------------------------------------------------|
  S S S S S S S S S S S S S S S S     S S S S S S S S S S S S E E
|----------------------------------||------------------------------|
|---------------------------------o||------------------------------|
|----------------------------------||------------------------------|
|----------------------------------||------------------------------|
|-------------4-4-4-4-4-4---------o||-------------4-4-4-4-4-4-5----|
|-3-3-3-3-3-3-------------3-3-3-3--||-3-3-3-3-3-3-------------3----|


    N.C.
    PM-------------------------------
    S S S S S S S S S S S S S S S S
||----------------------------------|
||o---------------------------------|
||----------------------------------|
||----------------------------------|
||o-------------4-4-4-4-4-4-5-5-5-5-|
||--2-2-2-2-2-2---------------------|


 1.                                   2.
                                      C5/G G5/D F#5/C#
 -------------------------------|
  S S S S S S S S S S S S S S S S     Q.   Q.   Q
|----------------------------------||---------------|
|---------------------------------o||---------------|
|----------------------------------||------7----6---|
|----------------------------------||-5----5----4---|
|-------------4-4-4-4-4-4---------o||-3----5----4---|
|-3-3-3-3-3-3-------------3-3-3-3--||-3-------------|


    N.C.
    PM-------------------------------
    S S S S S S S S S S S S S S S S
||----------------------------------|
||o---------------------------------|
||----------------------------------|
||----------------------------------|
||o-------------4-4-4-4-4-4-5-5-5-5-|
||--2-2-2-2-2-2---------------------|


 1.,2.,3.                             4.
                                           To Coda
                                      C5/G G5/D F#5/C#
 -------------------------------|
  S S S S S S S S S S S S S S S S  4x Q.   Q.   Q
|----------------------------------||---------------||
|---------------------------------o||---------------||
|----------------------------------||------7----6---||
|----------------------------------||-5----5----4---||
|-------------4-4-4-4-4-4---------o||-3----5----4---||
|-3-3-3-3-3-3-------------3-3-3-3--||-3-------------||


   1st Chorus
    N.C.
    Gtr III
                           ~~~~~~~~~~~~~~~~~~~~~~~
      E  +S   S  +E     E  H                  +W
||-----------------------------------------|------------------------------|
||o-/13-(13)-12-(12)------12---------------|-(12)-------------------------|
||---------------------14------------------|------------------------------|
||-----------------------------------------|------------------------------|
||o----------------------------------------|------------------------------|
||-----------------------------------------|------------------------------|
|
|   Gtrs I, II
|         PM----|          PM------------|        PM|   PM   PM|    PM|
|     E   S   S   S  S  E  S S S S S S S S     E  S S S S  E S S  E S S E
||-----------------------------------------|------------------------------|
||o----------------------------------------|------------------------------|
||-----------------------------------------|------------------------------|
||----7----------------10------------------|---9----------12-----10-----9-|
||o-------0---0---0--0-----0-0-0-0-0-0-0-0-|------0-0-0-0----0-0----0-0---|
||-----------------------------------------|------------------------------|


                         ~~~~                      ~~~~~~~~~
   E  +S   S  +E     E   Q.    E    +E   E  E   E  Q    +Q
|-----------------------------13-|-(13)-12----/17---------------||
|-15-(15)-13-(13)---12--13-------|---------13-----17---(17)----o||
|--------------------------------|------------------------------||
|--------------------------------|------------------------------||
|--------------------------------|-----------------------------o||
|--------------------------------|------------------------------||
|
|      PM---------|  ~~~~~~~
|  E   S   S   S  S  E  +Q.    E    +E   E  E   E  E E   Q
|--------------------------------|------------------------------||
|--------------------------------|-----------------------------o||
|-----------------------------10-|-(10)--9----------------------||
|--7----------------10-(10)------|---------10---9--7-6----------||
|------0---0---0--0--------------|-----------------------7-----o||
|--------------------------------|------------------------------||


 Guitar Solo
  E5           E5VII           F5VIII
  Gtr III
   ~~~
   H     +Q     Q     +Q       +Q    +Q   +Q
|-------------------|--------------------------|
|-------------------|--------------------------|
|--9-----(9)---[9]--|-(9)b10===(9)---(9)--(9)r=|
|-------------------|--------------------------|
|-------------------|--------------------------|
|-------------------|--------------------------|
|
| Gtrs I, II
|         PM-|
|  H      E  E  Q     +Q        Q    +H
|-------------------|--------------------------|
|-------------------|--------------------------|
|-(4)---------------|--------------------------|
|--2------------9---|-(9)------10---(10)-------|
|--2------2--2--7---|-(7)-------8----(8)-------|
|--0------0--0------|--------------------------|


  E5       B5C5 B5        E5
   ~~~
                |--3--|                 |---3---|
   H       E  E E  E  E    S  S Q    e  e  e    e  T  T  S  T  T  S
|-----------------------|--------------------------------------------|
|-----------------------|-----------17-18-17---15-15h17p15-13h15p13--|
|-[9]------9-10-9-------|--------------------------------------------|
|-----------------12-10-|-12-10-9------------------------------------|
|-----------------------|--------------------------------------------|
|-----------------------|--------------------------------------------|
|
|      PM|                 PM------------------------------|
|  Q   E E E  E Q          E    E E  E  E    E     E        E
|-----------------------|--------------------------------------------|
|-----------------------|--------------------------------------------|
|-(4)-------------------|--------------------------------------------|
|--2-------4--5-4-------|--------------------------------------------|
|--2---2-2-2--3-2-------|--2----2-2--2--2----2-----2--------2--------|
|--0---0-0--------------|--0----0-0--0--0----0-----0--------0--------|


                E5VII       F5VIII
   H      +Q     Q     +Q    Q   +H
|-------------------|-------------------|
|-12-----(12)---12--|-(12)--13--(13)----|
|-------------------|-------------------|
|-------------------|-------------------|
|-------------------|-------------------|
|-------------------|-------------------|
|
|          PM-|
|  H       E  E  Q     +Q    Q   +H
|-------------------|-------------------|
|-------------------|-------------------|
|-(4)---------------|-------------------|
|--2-------------9--|--(9)--10--(10)----|
|--2-------2--2--7--|--(7)---8---(8)----|
|--0-------0--0-----|-------------------|


  E5                                   B5       C5       B5
   |-------6-------|  |------6-------|  |------6-------|  |------6-------|
   S   S  S  S  S  S  S  S  S  S  S  S  S  S  S  S  S  S  S  S  S  S  S  S
|--------------------------------------12h13p12----------------------------|
|-12--13----------12h13p12----12-13-15----------15-13-12----------12h13p12-|
|--------14-13-14----------14----------------------------14-13-14----------|
|--------------------------------------------------------------------------|
|--------------------------------------------------------------------------|
|--------------------------------------------------------------------------|
|
|                     PM------|
|  Q                  E        E        E        E        Q
|--------------------------------------------------------------------------|
|--------------------------------------------------------------------------|
|-(4)----------------------------------------------------------------------|
|--2------------------------------------4--------5--------4----------------|
|--2------------------2--------2--------2--------3--------2----------------|
|--0------------------0--------0-------------------------------------------|


  E5
   |------6-------|  |------6-------|  |-----6------|
   S  S  S  S  S  S  S  S  S  S  S  S  S  S  S S  S S S  S S S
|-------------12h13p12-----------------------------------------|
|----12-13-15----------15-13-12h13p12-10h12p10-9h10p9----------|
|-14--------------------------------------------------9-10-9-7-|
|--------------------------------------------------------------|
|--------------------------------------------------------------|
|--------------------------------------------------------------|
|
|  PM------------------------------------------------------|
|  E        E        E        E        E       E      E    E
|--------------------------------------------------------------|
|--------------------------------------------------------------|
|--------------------------------------------------------------|
|--------------------------------------------------------------|
|--2--------2--------2--------2--------2-------2------2----2---|
|--0--------0--------0--------0--------0-------0------0----0---|


              E5VII     F5VIII
   ~~~                    ~~~~~~~~
   H      E E Q    +Q     Q   +H
|----------------|-------------------|
|----------------|-------------------|
|--9-------------|-------------------|
|--------10-9-7--|-(7)--/12--(12)----|
|----------------|-------------------|
|----------------|-------------------|
|
|         PM|
|  H      E E Q    +Q     Q   +H
|----------------|-------------------|
|----------------|-------------------|
|-(4)------------|-------------------|
|--2----------9--|-(9)---10--(10)----|
|--2------2-2-7--|-(7)----8---(8)----|
|--0------0-0----|-------------------|


  E5           B5 C5  B5      E5
   |---3---|    |---3---|                        |--3--|
   Q   Q   Q    Q   q   q   a H       +Q     E   S  S  S
|-------------------------|-------------------------------|
|-------------------------|-------------------------------|
|-------------------------|--------------------/16-16-16--|
|-12--10---9---10---9---7-|-7s9-------(9)\----------------|
|-------------------------|-------------------------------|
|-------------------------|-------------------------------|
|
|        PM--|                PM---------------|
|  Q     E   E  E E   Q       E E E E  E   E E   E
|-------------------------|-------------------------------|
|-------------------------|-------------------------------|
|-(4)---------------------|-------------------------------|
|--2------------4-5---4---|-------------------------------|
|--2-----2---2--2-3---2---|---2-2-2-2--2---2-2---2--------|
|--0-----0---0------------|---0-0-0-0--0---0-0---0--------|


                                             E5VII
   |-------6-------|                 |--3--|  |------6-------|
   S   S  S  S  S  S  S  +S   +Q     S  S  S  S  S  S  S  S  S
|--------------------------------------------------------------|
|-----------------------------------16-17-17-17-17-17-17-17-17-|
|-16--16-16-17-16-14-16-(16)-(16)------------------------------|
|--------------------------------------------------------------|
|--------------------------------------------------------------|
|--------------------------------------------------------------|
|
|                                 PM|
|  H                              E  E        Q
|--------------------------------------------------------------|
|--------------------------------------------------------------|
|-(4)----------------------------------------------------------|
|--2------------------------------------------9----------------|
|--2------------------------------2--2--------7----------------|
|--0------------------------------0--0-------------------------|


                     F5VIII
                      ~~~
   |-------6-------|                     |--3--|
   S   S  S  S  S  S  Q.        +E   E   S  S  S
|--------------------------------------/19-19-19--|
|-17--18-17-15-17-15------------------------------|
|--------------------17--------(17)\--------------|
|-------------------------------------------------|
|-------------------------------------------------|
|-------------------------------------------------|
|
| +Q                  Q    +H
|-------------------------------------------------|
|-------------------------------------------------|
|-------------------------------------------------|
|-(9)----------------10---(10)--------------------|
|-(7)-----------------8----(8)--------------------|
|-------------------------------------------------|


  E5                                   B5       C5    B5
                                                                   ~~~
   |-------6-------|  |------6-------|  |------6-------|  |--3--|
   S   S  S  S  S  S  S  S  S  S  S  S  S  S  S  S  S  S  S  S  S  E
|-19--19-19-19-19-19-20-19-17-19-17-15-------------------------------|
|--------------------------------------18-17-15-17-15----15----------|
|-----------------------------------------------------17----17-14-16-|
|--------------------------------------------------------------------|
|--------------------------------------------------------------------|
|--------------------------------------------------------------------|
|
|                     PM------|
|  Q                  E        E        E        E        Q
|--------------------------------------------------------------------|
|--------------------------------------------------------------------|
|-(4)----------------------------------------------------------------|
|--2------------------------------------4--------5--------4----------|
|--2------------------2--------2--------2--------3--------2----------|
|--0------------------0--------0-------------------------------------|


  E5
 ~~~~~~                   ~~
   +E   E  E  E  E  E  E  E
|---------------------------||
|---------------------------||
|-(16)-17-16-14-------------||
|---------------15-14s12-14-||
|---------------------------||
|---------------------------||
|
|   PM-------------------|
|   E   E  E  E  E  E  E  E
|---------------------------||
|---------------------------||
|---------------------------||
|---------------------------||
|---2---2--2--2--2--2--2--2-||
|---0---0--0--0--0--0--0--0-||


   Breakdown
    Amadd9                          Cmaj7
    Gtr IV
    E E E E +Q   E E   +W           E E E E +Q   E E   +H     E E Q
||-------------------|------------|------------------|--------0--------||
||o-------0-(0)----0-|-(0)--------|-------0-(0)----0-|-(0)------0-----o||
||------5--------5---|------------|-----5--------5---|------------5----||
||----2--------------|------------|---2--------------|-----------------||
||o-0----------------|------------|-3----------------|----------------o||
||-------------------|------------|------------------|-----------------||


  Amadd9
  Gtr III
                                     ~~~~~~
  H        Q    E  E    E   E  E  E  H
|--------------------|--------------------|
|--------------10s12-|-12s=13-13s15-15----|
|--------------------|--------------------|
|--------------------|--------------------|
|--------------------|--------------------|
|--------------------|--------------------|
|
| Gtr IV
| E E E E +Q    E  E   +W
|--------------------|--------------------|
|-------0-(0)------0-|-(0)----------------|
|-----5---------5----|--------------------|
|---2----------------|--------------------|
|-0------------------|--------------------|
|--------------------|--------------------|


  Cmaj7
 ~~~~~~                                    ~~~
   +H         +Q    E  E    E   E  E  E E  Q.
|------------------------|-----------------------|
|-(15)-------(15)--10s12-|-12s=13-13s12-8s10-----|
|------------------------|-----------------------|
|------------------------|-----------------------|
|------------------------|-----------------------|
|------------------------|-----------------------|
|
|   E  E E E  +Q    E  E   +H           E  E  Q
|------------------------|--------------0--------|
|----------0--(0)------0-|-(0)-------------0-----|
|--------5----------5----|--------------------5--|
|------2-----------------|-----------------------|
|---3--------------------|-----------------------|
|------------------------|-----------------------|


  Amadd9
  Gtrs I, II
    W                       W
  Gtr III
    ~~~~                                 ~~~~~~
   +H         +Q    E  E    E   E  E  E  H
|------------------------|--------------------|
|-(10)-------(10)--10s12-|-12s=13-13s15-15----|
|------------------------|--------------------|
|------------------------|--------------------|
|------------------------|--------------------|
|------------------------|--------------------|
|
| Gtr IV
|   E  E E E  +Q    E  E   +W
|------------------------|--------------------|
|----------0--(0)------0-|-(0)----------------|
|--------5----------5----|--------------------|
|------2-----------------|--------------------|
|---0--------------------|--------------------|
|------------------------|--------------------|


  Cmaj7                                           N.C.
    W                         H              Q    Q
                                                  |
                                                  x

 ~~~~~~
              |---3----|
   +Q.     E  Q   Q    Q      E      +Q.    +H
|------------19--20---22---|-22b24==(22)---(22)------||
|-(15)---------------------|-------------------------||
|--------------------------|-------------------------||
|--------------------------|-------------------------||
|--------------------------|-------------------------||
|--------------------------|-------------------------||
|
|   E  E E E +Q     E    E   +H              E  E Q
|--------------------------|-----------------0-------||
|----------0-(0)---------0-|-(0)----------------0----||
|--------5----------5------|----------------------5--||
|------2-------------------|-------------------------||
|---3----------------------|-------------------------||
|--------------------------|-------------------------||


 Pre-Verse
  F5       E5      F5             E5 N.C.
  Gtr III
                     >
   +H         +Q    +Q       +H        H
|-(22)-------(22)--(22)---|-(22)r-------------|
|-------------------------|-------------------|
|-------------------------|-------------------|
|-------------------------|-------------------|
|-------------------------|-------------------|
|-------------------------|-------------------|
|
| Gtrs I, II
|   PM---|           PM-----|              ~
|   E  E E E  +Q     E  E     E   Q  E E E Q
|-------------------------|-------------------|
|-------------------------|-------------------|
|-------------------------|-------------------|
|-------------------------|-------------------|
|---3------2--(2)----3----|-------2--3-2------|
|------1-1-0--(0)-------1-|---1---0------4-3--|


                              D.S. al Coda
  F5        E5     F5          E5 N.C.
  W                        W
|------------------------|-----------------||
|------------------------|-----------------||
|------------------------|-----------------||
|------------------------|-----------------||
|------------------------|-----------------||
|------------------------|-----------------||
|
| PM------|        PM--------|        PM~
| e S S S S E +Q   e S S   S S Q  E E E Q
|------------------------|-----------------||
|------------------------|-----------------||
|------------------------|-----------------||
|------------------------|-----------------||
|-----------2-(2)--------|-----2--3-2------||
|-1-1-1-1-1-0-(0)--1-1-1-|-1-1-0------3-4--||


 2nd Chorus
  &
  N.C.
  Gtr III
    ~~~~~~~              ~~~~~~~~~~~~~~~~~~~~~~~
    E  +S   S  +E     E  H                  +W
|----------------------------------------|------------------------------|
|-/13-(13)-12-(12)------12---------------|-(12)-------------------------|
|--------------------14------------------|------------------------------|
|----------------------------------------|------------------------------|
|----------------------------------------|------------------------------|
|----------------------------------------|------------------------------|
|
| Gtrs I, II
|       PM----|          PM------------|        PM|   PM   PM|    PM|
|   E   S   S   S  S  E  S S S S S S S S     E  S S S S  E S S  E S S E
|----------------------------------------|------------------------------|
|----------------------------------------|------------------------------|
|----------------------------------------|------------------------------|
|---7----------------10------------------|---9----------12-----10-----9-|
|-------0---0---0--0-----0-0-0-0-0-0-0-0-|------0-0-0-0----0-0----0-0---|
|----------------------------------------|------------------------------|


                         ~~~~                      ~~~~~~~~~
   E  +S   S  +E     E   Q.    E    +E   E  E   E  Q    +Q
|-----------------------------13-|-(13)-12----/17------------|
|-15-(15)-13-(13)---12--13-------|---------13-----17---(17)--|
|--------------------------------|---------------------------|
|--------------------------------|---------------------------|
|--------------------------------|---------------------------|
|--------------------------------|---------------------------|
|
|      PM---------|  ~~~~~~~
|  E   S   S   S  S  E  +Q.    E    +E   E  E   E  E E   Q
|--------------------------------|---------------------------|
|--------------------------------|---------------------------|
|-----------------------------10-|-(10)--9-------------------|
|--7----------------10-(10)------|---------10---9--7-6-------|
|------0---0---0--0--------------|-----------------------7---|
|--------------------------------|---------------------------|


    ~~~~~~~              ~~~~~~~~~~~~~~~~~~~~~~~
    E  +S   S  +E     E  H                  +W
|----------------------------------------|------------------------------|
|-/13-(13)-12-(12)------12---------------|-(12)-------------------------|
|--------------------14------------------|------------------------------|
|----------------------------------------|------------------------------|
|----------------------------------------|------------------------------|
|----------------------------------------|------------------------------|
|
|       PM----|          PM------------|        PM|   PM   PM|    PM|
|   E   S   S   S  S  E  S S S S S S S S     E  S S S S  E S S  E S S E
|----------------------------------------|------------------------------|
|----------------------------------------|------------------------------|
|----------------------------------------|------------------------------|
|---7----------------10------------------|---9----------12-----10-----9-|
|-------0---0---0--0-----0-0-0-0-0-0-0-0-|------0-0-0-0----0-0----0-0---|
|----------------------------------------|------------------------------|


                         ~~~~                           ~~
   E  +S   S  +E     E   Q.    E    +E   E  E  E  E  E  Q
|-----------------------------13-|-(13)-12-----------------*|
|-15-(15)-13-(13)---12--13-------|---------13-12-----------*|
|--------------------------------|---------------14-13-----*|
|--------------------------------|---------------------14--*|
|--------------------------------|-------------------------*|
|--------------------------------|-------------------------*|
|
|      PM---------|  ~~~~~~~
|  E   S   S   S  S  E  +Q.    E    +E   E  E  E  E  E  Q
|--------------------------------|-------------------------*|
|--------------------------------|-------------------------*|
|-----------------------------10-|-(10)--9-----------------*|
|--7----------------10-(10)------|---------10--9--7--6-----*|
|------0---0---0--0--------------|----------------------7--*|
|--------------------------------|-------------------------*|



Duration Legend
---------------
W - whole; H - half; Q - quarter; E - 8th; S - 16th; T - 32nd; X - 64th; a - acciaccatura
+ - note tied to previous; . - note dotted; .. - note double dotted
Uncapitalized letters represent notes that are staccato (1/2 duration)
Irregular groupings are notated above the duration line
Duration letters will always appear directly above the note/fret number it represents the
duration for.  Duration letters with no fret number below them represent rests.  Multi-
bar rests are notated in the form Wxn, where n is the number of bars to rest for.  Low
melody durations appear below the staff

Tablature Legend
----------------
 h   - hammer-on
 p   - pull-off
 b   - bend
 pb  - pre-bend
 r   - bend release (if no number after the r, then release immediately)
 /\  - slide into or out of (from/to "nowhere")
 s   - legato slide
 S   - shift slide
 - natural harmonic
[n]  - artificial harmonic
n(n) - tapped harmonic
 ~   - vibrato
 tr  - trill
 T   - tap
 TP  - trem. picking
 PM  - palm muting
\n/  - tremolo bar dip; n = amount to dip
 \n  - tremolo bar down
 n/  - tremolo bar up
/n\  - tremolo bar inverted dip
 =   - hold bend; also acts as connecting device for hammers/pulls
 <> - volume swell (louder/softer)
 x   - on rhythm slash represents muted slash
 o   - on rhythm slash represents single note slash

Misc Legend
-----------
 |  - bar
||  - double bar
||o - repeat start
o|| - repeat end
*|  - double bar (ending)
 :  - bar (freetime)
 $  - Segno
 &  - Coda
Tempo markers -  = BPM(8/16=s8/s16), where s8 = swing 8ths, s16 = swing 16ths

Tap to rate this tab
 
# A B C D E F G H I J K L M N O P Q R S T U V W X Y Z