Guitaretab - guitar tabs
Song name
# A B C D E F G H I J K L M N O P Q R S T U V W X Y Z

Death - Land Of No Return tab

Death - Land Of No Return 
bonus track from the great "Scream Bloody Gore" album.

"Ennesima canzone da suonare con divertimento! Originariamente apparsa su
qualche demo, Land Of No Return  una pura testimonianza di puro DEATH\THRASH
METAL anni 80. Gloria in eterno a CHUCK SCHULDINER... I miei riff dovrebbero
essere corretti... buon divertimento!"

bf : full bening
h  : hammer on
p  : pull oof
/  : slide up
\  : slide down
.. : palm muting

Intro (guitar 1& 2) :
                               ripetere per 4 volte
----------------------------------------------
----------------------------------------------
----------------------------------------------
-5-4--2------------6-5-----------------------
-3-2--2------------4-3-----------------------
------0---6bf-5bf----------------------------

ripetere i due accordi inziale solo la prima volta


Riff 1 (guitar 1 & 2) :
                               ripetere 8 volte
-----------------------------------------------
-----------------------------------------------
-----------------------------------------------
-------6--------6------------------------------
-------4--------4------------------------------
-22222----22222----222222-33335555-5h3p2-------
......    ......   ............... 
 
pre chorus (guitar 1 & 2) :
                                   ripetere 4 volte   
-------------------------------------------------
-------------------------------------------------
-------------------------------------------------
--------9/10-9/10--------------------------------
--------7/8--7/8---------------------------------
-555555----------888888877777--------------------


chorus (guitar 1 & 2) :
                                     ripetere 2 volte    
-----------------------------------------------------
-----------------------------------------------------
-----------------------------------------------------
----------------------3-4-----------------------5-4--
----------------------1-2-----------------------3-2--
-33322200003332220000------33322200003332220000------
......................     .................... 

Ripetere intro ( 2 volte), Riff 1 (8 volte), pre chorus (4 volte) 
e chorus (2 volte)

dopo chorus :

Riff 2 (guitar 1 & 2) :
                                  ripetere 6 volte
--------------------------------------------------
--------------------------------------------------
--------------------------------------------------
--------------------------------------------------
--------------------------------------------------
-2222333222233322225h3p2-22222555553333322222-----


assolo not tabbed e non ho ancora capito bene che Riff c' sotto l'assolo....


Ripetere chorus

Fine :

------
------
------
--2---
--2---
--0---

Questo  tutto, aspetto i vostri commenti!!!

                                Fasa 85
                         JESUS ANAL PENETRATION
[ Tab from: http://www.guitaretab.com/d/death/37718.html ]
Related for Land Of No Return tab