Song name
# A B C D E F G H I J K L M N O P Q R S T U V W X Y Z

Death - Forgotten Past tab

                      DEATH - FORGOTTEN PAST
                      From the Album LEPROSY
                      COPYRIGHT 1988 RELATIVITY RECORDS INC.

Notation: When two guitars are listed play all guitars simultaneously.
          b = bend              / = slide up            a.h. = artificial
          bf= bend full         br= bend release               harmonic
          h = hammer-on         \ = slide down          n.h. = harmonic
          p = pull-off          . = palm mute(pm)          t = tapping
          " = tremolo picking   > = abrupt stop            ~ = vibrato

Tuning = D (D,G,C,F,A,D)


Riff A.1
|-----------------------------------------|
|-----------------------------------------|
|-6-------------------5-------------------|GTR I
|-6--6-7--------------5--5/6--------------|
|-4--6-7--------------3--5/6--------------|
|----4-5-222222222222----3/4-111111111111-|
         ............        ............

Riff A.2
|--------------------------------------------------|
|--------------------------------------------------|
|------------------------------5-------------------|GTRS I
|------------------------------5--5/6--------------|  & II
|-3-2-----3-2---4--------------3--5/6--------------|
|-----3-4-----3---222222222222----3/4-111111111111-|
                  ............        ............


Play Riff A.1 two times
Play Riff A.2 one time
Play Riff A.1 one time
Play Riff A.2 one time
Play Riff A.1 one time


Riff B
|------------------------------------------------------|
|------------------------------------------------------|
|------------------------------------------------------|GTRS I
|------------------------------------------------------|  & II
|----------6666-----------------------4444-------------|
|-55555555------444444444444-33333333------22222222222-|
  ........ .... ............ ........ .... ...........


Play Riff B four times


Riff C.1
|-----------|
|-----------|
|------3----|GTRS I
|-5-3--3-4--|  & II
|-5-3--1-4--|
|-3-1----2--|


Riff C.2
|---------------------------------------------|
|---------------------------------------------|
|---------------------------------------------|GTRS I
|---------------------------------------------|  & II
|-----------------------11111111--------------|
|-33333333-111111111111----------222222222222-|
  ........ ............ ........ ............


Play Riff C.1 two times
Play Riff C.2 four times
Play Riff C.1 two times


Riff D.1
|---------------------------------------------|
|---------------------------------------------|
|---------------------------------------------|GTRS I
|---------------------------------------------|  & II
|--------------444444444444----------33333333-|
|-222222222222--------------55555555----------|
  ............ ............ ........ ........

continuation of Riff D.1
|----------------------|
|----------------------|
|----------------------|GTRS I
|----------------------|  & II
|----------22222222----|
|-44444444----------33-|
  ........ ........ ..


Riff D.2
|---------------------------------------------|
|---------------------------------------------|
|---------------------------------------------|GTR I
|---------------------------------------------|
|--------------444444444444----------33333333-|
|-222222222222--------------55555555----------|
| ............ ............ ........ ........ |
|                                             |
|---------------------------------------------|
|---------------------------------------------|
|--------------666666666666----------55555555-|GTR II
|-444444444444--------------77777777----------|
|---------------------------------------------|
|---------------------------------------------|

continuation of Riff D.2
|----------------------|
|----------------------|
|----------------------|GTR I
|----------------------|
|----------22222222----|
|-44444444----------33-|
| ........ ........ .. |
|                      |
|----------------------|
|----------------------|
|----------44444444----|GTR II
|-66666666----------55-|
|----------------------|
|----------------------|


Riff D.3
|-------------------|
|-------------------|
|----6----5----4----|GTR I
|-4--6--7-5--6-4--5-|
|-4--4--7-3--6-2--5-|
|-2-----5----4----3-|
|                   |
|-------------------|
|-------------------|
|----6----5----4----|GTR II
|-4-----7----6----5-|
|-------------------|
|-------------------|


Play Riff D.1 three times
Play Riff D.2 two times
Play Riff D.3 one time


Riff E
|---------------------------------------------------------|
|---------------------------------------------------------|
|---------------------------------------------------------|GTRS I
|---------------------------------------------------------|  & II
|---------------------------------------------------------|
|-222222222222-44444444-55555555-111111111111-00000000000-|
  ............ ........ ........ ............ ...........


Play Riff E four times


Riff F
|------------------------------------------------------|
|------------------------------------------------------|
|------------------------------------------------------|GTRS I
|------------------------------------------------------|  & II
|---------------------------------------------11111111-|
|-222222222222-33333333-22222222-000000000000----------|
  ............ ........ ........ ............ ........

continuation of Riff F
|------------------------------------------------------|
|------------------------------------------------------|
|------------------------------------------------------|GTRS I
|------------------------------------------------------|  & II
|---------------------------------------------1111-----|
|-222222222222-33333333-22222222-000000000000-----1111-|
  ............ ........ ........ ............ ........


Play Riff F four times


Riff G - Solo 1
|----------------------------------------------------|
|----------------------------------------------------|
|----------------------------------------------------|GTRS I
|----------------------------------------------------|  & II
|----------------------------------------------------|
|-22222222222-333333333333-111111111111-222222222222-|
  ........... ............ ............ ............


Play Riff G four times


Riff H.1 - Solo 2
|--------------------------|
|--------------------------|
|------4-------------------|GTRS I
|-2--5-4-------------------|  & II
|-2--5-2-11111111----------|
|-0--3------------11111111-|
         ........ ........


Riff H.2 - Solo 2
|-------------------|
|-------------------|
|------4------------|GTRS I
|-2--5-4----------3-|  & II
|-2--5-2-11111111-3-|
|-0--3------------1-|
         ........


Play Riff H.1 three times
Play Riff H.2 one time
Play Riff A.1 two times
Play Riff A.2 one time
Play Riff A.1 one time
Play Riff A.2 one time
Play Riff A.1 one time
Play Riff B four times
Play Riff C.1 two times
Play Riff C.2 four times
Play Riff C.1 two times
END.


Tap to rate this tab
# A B C D E F G H I J K L M N O P Q R S T U V W X Y Z