Song name
# A B C D E F G H I J K L M N O P Q R S T U V W X Y Z

Deathray - Prolly Not tab

-----------------------------------------------------------------------------
			     Prolly Not - Deathray
-----------------------------------------------------------------------------
Tabbed by: djewings
Email: evert07@sbcglobal.net

Tuning: Standard

e|--------------------------------------------------------------------------|
B|--------------------------------------------------------------------------|
G|--------------------------------------------------------------------------|
D|--------------------------------------------------------------------------|
A|---9---9---9---9---9---9---9---9---9---9---9---9---9---9---9---9----------|
E|-7---7-------7---7---7-------7---7---7-------7---7---7-------7------------|


e|--------------------------------------------------------------------------|
B|--------------------------------------------------------------------------|
G|--------------------------------------------------------------------------|
D|-------8---------------8---------------8---------------8------------------|
A|---9-------9---9---9-------9---9---9-------9---9---9-------9---9----------|
E|-0---0---0---7---0---0---0---7---0---0---0---7---0---0---0---7------------|

Chords:

e|--0---0--|
B|--0---0--|
G|--4---9--|
D|--4---9--|
A|--2---7--|
E|--2---7--|


e|--------------------------------------------------------------------------|
B|--------------------------------------------------------------------------|
G|--------------------------------------------------------------------------|
D|--------------------------------------------------------------------------|
A|---9---9---9---9---9---9---9---9---9---9---9---9---9---9---9---9----------|
E|-7---7-------7---7---7-------7---7---7-------7---7---7-------7------------|
           Maybe there's something about us

e|--------------------------------------------------------------------------|
B|--------------------------------------------------------------------------|
G|--------------------------------------------------------------------------|
D|-------8---------------8---------------8---------------8------------------|
A|---9-------9---9---9-------9---9---9-------9---9---9-------9---9----------|
E|-0---0---0---7---0---0---0---7---0---0---0---7---0---0---0---7------------|
                         That needs to be said               Prolly not

e|--------------------------------------------------------------------------|
B|--------------------------------------------------------------------------|
G|--------------------------------------------------------------------------|
D|--------------------------------------------------------------------------|
A|---9---9---9---9---9---9---9---9---9---9---9---9---9---9---9---9----------|
E|-7---7-------7---7---7-------7---7---7-------7---7---7-------7------------|
           Maybe it's just time to shut up        give up

e|--------------------------------------------------------------------------|
B|--------------------------------------------------------------------------|
G|--------------------------------------------------------------------------|
D|-------8---------------8---------------8---------------8------------------|
A|---9-------9---9---9-------9---9---9-------9---9---9-------9---9----------|
E|-0---0---0---7---0---0---0---7---0---0---0---7---0---0---0---7------------|
                     To lock your will                       safely away
Piano part:

e|-14--12------11-----------------------------------------------------------|
B|---------14------12----9--7--5--------------------------------------------|
G|--------------------------------1--4--------------------------------------|
D|--------------------------------------------------------------------------|
A|--------------------------------------------------------------------------|
E|--------------------------------------------------------------------------|


e|--------------------------------------------------------------------------|
B|--------------------------------------------------------------------------|
G|--------------------------------------------------------------------------|
D|--------------------------------------------------------------------------|
A|---9---9---9---9---9---9---9---9---9---9---9---9---9---9---9---9----------|
E|-7---7-------7---7---7-------7---7---7-------7---7---7-------7------------|
           To be direct      I never had           your attention

e|--------------------------------------------------------------------------|
B|--------------------------------------------------------------------------|
G|--------------------------------------------------------------------------|
D|-------8---------------8---------------8---------------8------------------|
A|---9-------9---9---9-------9---9---9-------9---9---9-------9---9----------|
E|-0---0---0---7---0---0---0---7---0---0---0---7---0---0---0---7------------|
                                                             I had

e|--------------------------------------------------------------------------|
B|--------------------------------------------------------------------------|
G|--------------------------------------------------------------------------|
D|--------------------------------------------------------------------------|
A|---9---9---9---9---9---9---9---9---9---9---9---9---9---9---9---9----------|
E|-7---7-------7---7---7-------7---7---7-------7---7---7-------7------------|
                            Your affection                  is that enough?

e|--------------------------------------------------------------------------|
B|--------------------------------------------------------------------------|
G|--------------------------------------------------------------------------|
D|-------8---------------8---------------8---------------8------------------|
A|---9-------9---9---9-------9---9---9-------9---9---9-------9---9----------|
E|-0---0---0---7---0---0---0---7---0---0---0---7---0---0---0---7------------|
                                                             Prolly not
------------
(Piano part)
------------

e|--------------------------------------------------------------------------|
B|--------------------------------------------------------------------------|
G|--------------------------------------------------------------------------|
D|--------------------------------------------------------------------------|
A|---9---9---9---9---9---9---9---9---9---9---9---9---9---9---9---9----------|
E|-7---7-------7---7---7-------7---7---7-------7---7---7-------7------------|
                                                   Prolly not

e|--------------------------------------------------------------------------|
B|--------------------------------------------------------------------------|
G|--------------------------------------------------------------------------|
D|-------8---------------8---------------8---------------8------------------|
A|---9-------9---9---9-------9---9---9-------9---9---9-------9---9----------|
E|-0---0---0---7---0---0---0---7---0---0---0---7---0---0---0---7------------|


e|--------------------------------------------------------------------------|
B|--------------------------------------------------------------------------|
G|--------------------------------------------------------------------------|
D|--------------------------------------------------------------------------|
A|---9---9---9---9---9---9---9---9---9---9---9---9---9---9---9---9----------|
E|-7---7-------7---7---7-------7---7---7-------7---7---7-------7------------|
   And I can't stand it                                      I'm sorry

e|--------------------------------------------------------------------------|
B|--------------------------------------------------------------------------|
G|--------------------------------------------------------------------------|
D|-------8---------------8---------------8---------------8------------------|
A|---9-------9---9---9-------9---9---9-------9---9---9-------9---9----------|
E|-0---0---0---7---0---0---0---7---0---0---0---7---0---0---0---7------------|
                               I'm gone                         But wait
------------
(Piano part)
------------

e|--------------------------------------------------------------------------|
B|--------------------------------------------------------------------------|
G|--------------------------------------------------------------------------|
D|--------------------------------------------------------------------------|
A|-----------------------------------9---9---9---9---9---9---9---9----------|
E|---------------------------------7---7-------7---7---7-------7------------|
                                   I'm back            I'm back

e|--------------------------------------------------------------------------|
B|--------------------------------------------------------------------------|
G|--------------------------------------------------------------------------|
D|-------8---------------8---------------8---------------8------------------|
A|---9-------9---9---9-------9---9---9-------9---9---9-------9---9----------|
E|-0---0---0---7---0---0---0---7---0---0---0---7---0---0---0---7------------|
                                                               I'm back
------------
(Piano part)
------------

e|--------------------------------------------------------------------------|
B|--------------------------------------------------------------------------|
G|--------------------------------------------------------------------------|
D|--------------------------------------------------------------------------|
A|---9---9---9---9---9---9---9---9---9---9---9---9---9---9---9---9----------|
E|-7---7-------7---7---7-------7---7---7-------7---7---7-------7------------|
                                                   I'm back

e|--------------------------------------------------------------------------|
B|--------------------------------------------------------------------------|
G|--------------------------------------------------------------------------|
D|-------8---------------8---------------8---------------8------------------|
A|---9-------9---9---9-------9---9---9-------9---9---9-------9---9----------|
E|-0---0---0---7---0---0---0---7---0---0---0---7---0---0---0---7------------|

------------
(Piano part)
------------

e|--------------------------------------------------------------------------|
B|--------------------------------------------------------------------------|
G|--------------------------------------------------------------------------|
D|--------------------------------------------------------------------------|
A|---9---9---9---9---9---9---9---9---9---9---9---9---9---9---9---9----------|
E|-7---7-------7---7---7-------7---7---7-------7---7---7-------7------------|

e|-----------------------------------------------------------------------------------|
B|-----------------------------------------------------------------------------------|
G|-----------------------------------------------------------------------------------|
D|-------8---------------8---------------8---------------8-----------8---8-------8---|
A|---9-------9---9---9-------9---9---9-------9---9---9-------9---9---9---9-------9---|
E|-0---0---0---7---0---0---0---7---0---0---0---7---0---0---0---7---7---7---7---7---7-|


------------------
Alternate Version
------------------

e|--------------------------------------------------------------------------|
B|--------------------------------------------------------------------------|
G|--------------------------------------------------------------------------|
D|---4---4---4---4---4---4---4---4---4---4---4---4---4---4---4---4----------|
A|-2---2-------2---2---2-------2---2---2-------2---2---2-------2------------|
E|--------------------------------------------------------------------------|

e|--------------------------------------------------------------------------|
B|--------------------------------------------------------------------------|
G|-------3---------------3---------------3---------------3------------------|
D|---4-------4---4---4-------4---4---4-------4---4---4-------4---4----------|
A|-------------2---------------2---------------2---------------2------------|
E|-0---0---0-------0---0---0-------0---0---0-------0---0---0----------------|


Feel free to email me at evert07@sbcglobal.net with comments, corrections, suggestions.  Thanks

******************************
Tap to rate this tab
 
# A B C D E F G H I J K L M N O P Q R S T U V W X Y Z