Song name
# A B C D E F G H I J K L M N O P Q R S T U V W X Y Z

Deathray - My Lunatic Friends tab

Help us improve GuitareTab! Take a short survey!
main chorus riff/intro

-------------------------------------|
-------------------------------------|
-----------7-7-7--7-7-7--------------|
---5-3-3---7-7-7--7-7-7-7-7-7--------|
---5-3-3-4-5-5-5--5-5-5-7-7-7--------|
---3-3-3-3--------------5-5-5--------|

verse

----------------------------------------------------|
----------------------------------------------------|
----------------------------------------------------|
----------------------------------------------------|
---7/5-5-5-5-5-5/4-4-4-4-4-4/3-3-3-3-3-3/5-5/7------|
---5/3-3-3-3-3-3/2-2-2-2-2-2/1-1-1-1-1-1/3-3/5------|    2x


----------------------------------------------------|
----------------------------------------------------|
----------------------------------------------------|
----------------------------------------------------|
---7/5-5-5-5-5-5-5-5-5-5-5-5/4-4-4-4-4-4-4-4-4-4-4/-|
---5/3-3-3-3-3-3-3-3-3-3-3-3/2-2-2-2-2-2-2-2-2-2-2/-|

  la la la la la la la
----------------------------------------------------|
----------------------------------------------------|
----------------------------------------------------|
----------------------------------------------------|
--3-2-3-2-3-2-3-------------------------------------|
--1-0-1-0-1-0-1-------------------------------------|

verse

quiet riff that starts 2nd chorus
----2-3---2---2---1---1---0--------------------------|
--3-----3---3---3---3---3-2--------------------------|
-----------------------------------------------------|
-----------------------------------------------------|
-----------------------------------------------------|
-----------------------------------------------------|

chorus

bridge, breakdown, whatever, here are the chords

E F# D A

E F# D Dm E

chorus

verse (i didnt bother to learn the little lead)

quiet riff that starts last chorus

last chorus

well thats about it except for the lead but whatever
horray to anyone wanting to learn this song cause deathray is awesome and more people 
to know about them, cause they basically rule


http://www.deathraymusic.com/
Related for My Lunatic Friends tab