Song name
# A B C D E F G H I J K L M N O P Q R S T U V W X Y Z

Deathrow Saints - Bloodborne tab

http://www.youtube.com/user/DeathrowSaintsVideos?feature=mhee                     

BloodBorne                        


                                         Deathrow Saints
guitar 1
music is in C# Standard not D.



            3x        
D||---------||-------|
A||---------||-------|
F||*-------*||-------|
C||*-------*||-------|
G||---------||-------|
D||---------||-------|


    S S S S S S S S S S S S S  S S  S  
|----------------------------------12-|
|---------------------------8-12-8----|
|*------------------------9-----------|
|*--5-9-5-------5-9-5-9-5-------------|
|---------7---7-----------------------|
|-----------7-------------------------|


  S S S S S S S S S S S S S  S S  S  
---------------------------------12-|
--------------------------8-12-8----|
------------------------9-----------|
--5-9-5-------5-9-5-9-5-------------|
--------7---7-----------------------|
----------7-------------------------|


  S S S S S S S S S S S S S  S S  S  
---------------------------------12-|
--------------------------8-12-8----|
------------------------9-----------|
--5-9-5-------5-9-5-9-5-------------|
--------7---7-----------------------|
----------7-------------------------|


                      PM PM                            
  E   E  E  E  E   E  E  E       Q    E  Q    E  Q     
-----------------------------||----------7------------|
-----------------------------||---------------8-------|
----------------------------*||------------------7----|
----------------------------*||-----------------------|
-----10-----9---------2--2---||-------7---------------|
--8------7-----5--10--0--0---||--0--------------------|


                      PM PM                          
  E   E  E  E  E   E  E  E     Q    E  Q    E  Q     
----------------------------|----------7------------|
----------------------------|---------------8-------|
----------------------------|------------------7----|
----------------------------|-----------------------|
-----10-----9---------2--2--|-------7---------------|
--8------7-----5--10--0--0--|--0--------------------|


                      PM PM                          
  E   E  E  E  E   E  E  E     Q    E  Q    E  Q     
----------------------------|----------7------------|
----------------------------|---------------8-------|
----------------------------|------------------7----|
----------------------------|-----------------------|
-----10-----9---------2--2--|-------7---------------|
--8------7-----5--10--0--0--|--0--------------------|


                      PM PM                          
  E   E  E  E  E   E  E  E     Q    E  Q    E  Q     
----------------------------|----------7------------|
----------------------------|---------------8-------|
----------------------------|------------------7----|
----------------------------|-----------------------|
-----10-----9---------2--2--|-------7---------------|
--8------7-----5--10--0--0--|--0--------------------|


                      PM PM                        
  E   E  E  E  E   E  E  E       W                 
----------------------------||--------------------|
----------------------------||--------------------|
----------------------------||*-------------------|
----------------------------||*--2----------------|
-----10-----9---------2--2--||---2----------------|
--8------7-----5--10--0--0--||---0----------------|


  W                   W                 
-------------------|-------------------|
-------------------|-------------------|
-------------------|-------------------|
--2----------------|--5----------------|
--2----------------|--3----------------|
--0----------------|--3----------------|


  W                   
--------------------||
--------------------||
-------------------*||
--2----------------*||
--2-----------------||
--0-----------------||


  S S S S S S S S S S S S S S S S  
--7-3-----------------------------|
------5---------------------------|
--------4-------------------------|
----------5-----------------------|
------------7-2---2---2---2-2---2-|
----------------3-0---0---0-0---0-|


    W                   W                 
|--------------------|-------------------|
|--------------------|-------------------|
|*--2----------------|--0----------------|
|*--2----------------|--2----------------|
|---3----------------|--2----------------|
|--------------------|-------------------|


  W                   H        H           
-------------------|---------------------||
-------------------|-----------3---------||
--2----------------|--5--------0--------*||
--2----------------|--5--------0--------*||
--3----------------|--3--------x---------||
-------------------|-----------3---------||


  S S S S S S S S S S S S S  S S  S  
---------------------------------12-|
--------------------------8-12-8----|
------------------------9-----------|
--5-9-5-------5-9-5-9-5-------------|
--------7---7-----------------------|
----------7-------------------------|


  S S S S S S S S S S S S S  S S  S  
---------------------------------12-|
--------------------------8-12-8----|
------------------------9-----------|
--5-9-5-------5-9-5-9-5-------------|
--------7---7-----------------------|
----------7-------------------------|


  S S S S S S S S S S S S S  S S  S  
---------------------------------12-|
--------------------------8-12-8----|
------------------------9-----------|
--5-9-5-------5-9-5-9-5-------------|
--------7---7-----------------------|
----------7-------------------------|


                      PM PM  
  E   E  E  E  E   E  E  E   
----------------------------|
----------------------------|
----------------------------|
----------------------------|
-----10-----9---------2--2--|
--8------7-----5--10--0--0--|


  S S S S S S S S S S S S S  S S  S  
---------------------------------12-|
--------------------------8-12-8----|
------------------------9-----------|
--5-9-5-------5-9-5-9-5-------------|
--------7---7-----------------------|
----------7-------------------------|


  S S S S S S S S S S S S S  S S  S  
---------------------------------12-|
--------------------------8-12-8----|
------------------------9-----------|
--5-9-5-------5-9-5-9-5-------------|
--------7---7-----------------------|
----------7-------------------------|


  S S S S S S S S S S S S S  S S  S  
---------------------------------12-|
--------------------------8-12-8----|
------------------------9-----------|
--5-9-5-------5-9-5-9-5-------------|
--------7---7-----------------------|
----------7-------------------------|


                      PM PM                        
  E   E  E  E  E   E  E  E       W                 
----------------------------||--------------------|
----------------------------||--------------------|
----------------------------||*-------------------|
----------------------------||*--2----------------|
-----10-----9---------2--2--||---2----------------|
--8------7-----5--10--0--0--||---0----------------|


                    NH                      
  H        Q.       E     W                 
-----------------------|-------------------|
-----------------------|-------------------|
------------------<>5--|-------------------|
--5--------7-----------|--2----------------|
--3--------5-----------|--2----------------|
--3--------5-----------|--0----------------|


                    NH                        
  H        Q.       E       W                 
------------------------||-------------------|
------------------------||-------------------|
------------------<>5--*||-------------------|
--5--------7-----------*||--2----------------|
--3--------5------------||--2----------------|
--3--------5------------||--0----------------|


  H        H           W                 
--------------------|-------------------|
--------------------|-------------------|
--------------------|-------------------|
--5--------7--------|--2----------------|
--3--------5--------|--2----------------|
--3--------5--------|--0----------------|


  H        H           W                 
--------------------|-------------------|
--------------------|-------------------|
--7-----------------|-------------------|
--5--------7--------|--2----------------|
--5--------5--------|--2----------------|
-----------5--------|--0----------------|


  H        H           W                 
--------------------|-------------------|
--------------------|-------------------|
--------------------|-------------------|
--5--------7--------|--2----------------|
--3--------5--------|--2----------------|
--3--------5--------|--0----------------|


  H        H           W                 
--------------------|-------------------|
--------------------|-------------------|
--7-----------------|-------------------|
--5--------7--------|--2----------------|
--5--------5--------|--2----------------|
-----------5--------|--0----------------|


  H        H           W                 
--------------------|-------------------|
--------------------|-------------------|
--------------------|-------------------|
--5--------7--------|--2----------------|
--3--------5--------|--2----------------|
--3--------5--------|--0----------------|


  H        H           W                 
--------------------|-------------------|
--------------------|-------------------|
--7-----------------|-------------------|
--5--------7--------|--2----------------|
--5--------5--------|--2----------------|
-----------5--------|--0----------------|


  H        H           W                 
--------------------|-------------------|
--------------------|-------------------|
--------------------|-------------------|
--5--------7--------|--2----------------|
--3--------5--------|--2----------------|
--3--------5--------|--0----------------|


  H        H           W                 
--------------------|-------------------|
--------------------|-------------------|
--7-----------------|-------------------|
--5--------7--------|--2----------------|
--5--------5--------|--2----------------|
-----------5--------|--0----------------|


  S S S S S S S S S S S S S S S S  
--7-3-----------------------------|
------5---------------------------|
--------4-------------------------|
----------5-----------------------|
------------7-2---2---2---2-2---2-|
----------------3-0---0---0-0---0-|


  S S S S S S S S S S S S S S S S  
--7-3-----------------------------|
------5---------------------------|
--------4-------------------------|
----------5-----------------------|
------------7-2---2---2---2-2---2-|
----------------3-0---0---0-0---0-|


  S S S S S S S S S S S S S S S S  
--7-3-----------------------------|
------5---------------------------|
--------4-------------------------|
----------5-----------------------|
------------7-2---2---2---2-2---2-|
----------------3-0---0---0-0---0-|


  S S S S S S S S S S S S S S S S  
--7-3-----------------------------|
------5---------------------------|
--------4-------------------------|
----------5-----------------------|
------------7-2---2---2---2-2---2-|
----------------3-0---0---0-0---0-|


  PM   PM   PM PM   PM PM   PM   PM PM   PM  
  S  S S  S S  S  S S  S  S S  S S  S  S S   
--------------------------------------------|
--------------------------------------------|
--------------------------------------------|
--------------------------------------------|
--2----2----2--2----2--2----2----2--2----2--|
--0----0----0--0----0--0----0----0--0----0--|


  PM   PM   PM PM   PM PM   PM   PM PM   PM  
  S  S S  S S  S  S S  S  S S  S S  S  S S   
--------------------------------------------|
--------------------------------------------|
--------------------------------------------|
--------------------------------------------|
--2----2----2--2----2--2----2----2--2----2--|
--0----0----0--0----0--0----0----0--0----0--|


  PM   PM   PM PM   PM PM   PM   PM PM   PM  
  S  S S  S S  S  S S  S  S S  S S  S  S S   
--------------------------------------------|
--------------------------------------------|
--------------------------------------------|
--------------------------------------------|
--2----2----2--2----2--2----2----2--2----2--|
--0----0----0--0----0--0----0----0--0----0--|


  PM   PM   PM PM   PM PM   PM   PM PM   PM  
  S  S S  S S  S  S S  S  S S  S S  S  S S   
--------------------------------------------|
--------------------------------------------|
--------------------------------------------|
--------------------------------------------|
--2----2----2--2----2--2----2----2--2----2--|
--0----0----0--0----0--0----0----0--0----0--|


  PM   PM   PM PM   PM PM   PM   PM PM   PM  
  S  S S  S S  S  S S  S  S S  S S  S  S S   
--------------------------------------------|
--------------------------------------------|
--------------------------------------------|
--------------------------------------------|
--2----2----2--2----2--2----2----2--2----2--|
--0----0----0--0----0--0----0----0--0----0--|


  PM   PM   PM PM   PM PM   PM   PM PM   PM  
  S  S S  S S  S  S S  S  S S  S S  S  S S   
--------------------------------------------|
--------------------------------------------|
--------------------------------------------|
--------------------------------------------|
--2----2----2--2----2--2----2----2--2----2--|
--0----0----0--0----0--0----0----0--0----0--|


  PM   PM   PM PM   PM PM   PM   PM PM   PM  
  S  S S  S S  S  S S  S  S S  S S  S  S S   
--------------------------------------------|
--------------------------------------------|
--------------------------------------------|
--------------------------------------------|
--2----2----2--2----2--2----2----2--2----2--|
--0----0----0--0----0--0----0----0--0----0--|


  PM   PM   PM PM   PM PM   PM   PM PM   PM  
  S  S S  S S  S  S S  S  S S  S S  S  S S   
--------------------------------------------|
--------------------------------------------|
--------------------------------------------|
--------------------------------------------|
--2----2----2--2----2--2----2----2--2----2--|
--0----0----0--0----0--0----0----0--0----0--|


  S S S S S S S S S S S S S  S S  S  
---------------------------------12-|
--------------------------8-12-8----|
------------------------9-----------|
--5-9-5-------5-9-5-9-5-------------|
--------7---7-----------------------|
----------7-------------------------|


  S S S S S S S S S S S S S  S S  S  
---------------------------------12-|
--------------------------8-12-8----|
------------------------9-----------|
--5-9-5-------5-9-5-9-5-------------|
--------7---7-----------------------|
----------7-------------------------|


  S S S S S S S S S S S S S  S S  S  
---------------------------------12-|
--------------------------8-12-8----|
------------------------9-----------|
--5-9-5-------5-9-5-9-5-------------|
--------7---7-----------------------|
----------7-------------------------|


  S S S S S S S S S S S S S  S S  S    S S   
---------------------------------12-|------||
--------------------------8-12-8----|------||
------------------------9-----------|------||
--5-9-5-------5-9-5-9-5-------------|--2-2-||
--------7---7-----------------------|--2-2-||
----------7-------------------------|--0-0-||




Duration Legend
---------------
W - whole
H - half
Q - quarter
E - 8th
S - 16th
T - 32nd
X - 64th
. - note dotted
|-n-|  - n-tuplets


Tablature Legend
----------------
L - tied note
x - dead note
g - grace note
(n) - ghost note
> - accentuded note
NH - natural harmonic
AH - artificial harmonic
TH - tapped harmonic
SH - semi harmonic
PH - pitch harmonic
h - hammer on
p - pull off
b - bend
br - bendRelease
pb - preBend
pbr - preBendRelease
brb - bendReleaseBend
\n/ - tremolo bar dip
\n - tremolo bar dive
-/n - tremolo bar Release up
/n\ - tremolo bar inverted dip
/n - tremolo bar return
-\n - tremolo bar Release down
S - shift slide
s - legato slide
/ -  slide into from below or out of upwards
\ -  slide into from above or out of downwards
~ - vibrato
W - wide vibrato
tr - trill
TP - tremolo picking
T - tapping
S - slap
P - pop
< - fade in
^ - brush up
v - brush down
Tap to rate this tab
# A B C D E F G H I J K L M N O P Q R S T U V W X Y Z