Song name
# A B C D E F G H I J K L M N O P Q R S T U V W X Y Z

Deathstars - Trinity Fields tab

=====================================================
                 "Trinity Fields"

                    Deathstars
                Termination Bliss

=====================================================

Tabbed By: John Moores
           mooresjw@email.uc.edu


Tuning: Drop C (CGCFAD)

Legend:  * Palm Mute

Riff 1
0:18
|--------------------------------------------------|
|--------------------------------------------------|
|--------------------------------------------------|
|--------------------------------------------------|  x4
|--0--0-0----0--0-0---3--0-0----6--0-0-------------|
|--0--0-0----0--0-0---3--0-0----6--0-0-------------|
      * *       * *      * *       * *

Riff 1
0:56
|--------------------------------------------------|
|--------------------------------------------------|
|--------------------------------------------------|
|--------------------------------------------------|  x2
|--0--0-0----0--0-0---3--0-0----6--0-0-------------|
|--0--0-0----0--0-0---3--0-0----6--0-0-------------|
      * *       * *      * *       * *


Riff 1
1:24
|--------------------------------------------------|
|--------------------------------------------------|
|--------------------------------------------------|
|--------------------------------------------------|
|--0--0-0----0--0-0---3--0-0----6--0-0-------------|
|--0--0-0----0--0-0---3--0-0----6--0-0-------------|
      * *       * *      * *       * *


Chorus
1:28
|--------------------------------------------------|
|--------------------------------------------------|
|--------------------------------------------------|
|-----5---5---1---1----5-----5----10--8----7-------|
|-3---5---5---1---1----5-----5----10--8----7-------|
|-3---5-5-5---1-1-1----5--5--5----10--8----7-------|


|--------------------------------------------------|
|--------------------------------------------------|
|--------------------------------------------------|
|-----5---5---1---1----5--5-5--5-------------------|
|-3---5---5---1---1----3--3-3--3-------------------|
|-3---5-5-5---1-1-1--------------------------------|




1:46
|--------------------------------------------------|
|--------------------------------------------------|
|--------------------------------------------------|
|--------------------------------------------------|  x4
|--0--0-0----0--0-0---3--0-0----6--0-0-------------|
|--0--0-0----0--0-0---3--0-0----6--0-0-------------|
      * *       * *      * *       * *

Verse
2:05
|--------------------------------------------------|
|--------------------------------------------------|
|--------------------------------------------------|
|--------------------------------------------------| x4
|--------------------------------------------------|
|---00--00--00-------------------------------------|
    **  **  **


Riff 1
2:23
|--------------------------------------------------|
|--------------------------------------------------|
|--------------------------------------------------|
|--------------------------------------------------|
|--0--0-0----0--0-0---3--0-0----6--0-0-------------|
|--0--0-0----0--0-0---3--0-0----6--0-0-------------|
      * *       * *      * *       * *


Chorus
2:27
|--------------------------------------------------|
|--------------------------------------------------|
|--------------------------------------------------|
|-----5---5---1---1----5-----5----10--8----7-------|
|-3---5---5---1---1----5-----5----10--8----7-------|
|-3---5-5-5---1-1-1----5--5--5----10--8----7-------|
        *       *         *                   

|--------------------------------------------------|
|--------------------------------------------------|
|--------------------------------------------------|
|-----5---5---1---1----5--5-5--5-------------------|
|-3---5---5---1---1----3--3-3--3-------------------|
|-3---5-5-5---1-1-1--------------------------------|
        *       *         * * 


2:46
|--------------------------------------------------|
|--------------------------------------------------|
|--------------------------------------------------|
|--------------------------------------------------| 
|----8---8---10----10----5-----5-----3-----3-------|
|----8-8-8---10-10-10----5--5--5-----3--3--3-------|
       *        *           *           *

|--------------------------------------------------|
|--------------------------------------------------|
|--------------------------------------------------|
|------------------------------------7--7-7--7-----| 
|----8---8---10----10----5-----5-----5--5-5--5-----|
|----8-8-8---10-10-10----5--5--5-------------------|
       *        *           *           * *


3:23
Chorus


4:00
Riff 1








Tap to rate this tab
 
# A B C D E F G H I J K L M N O P Q R S T U V W X Y Z