Song name
# A B C D E F G H I J K L M N O P Q R S T U V W X Y Z

Deathstars - Cyanide tab

Cyanide by Deathstars
Tabbed by Jon C

Email - Ydks@hotmail.co.uk

Tuning - CGCFAd
Key
Pm... - palm mute
/ - slide

Intro and main riff
'''''''''''''''''''
d---------------------------------------------|
A---------------------------------------------|
F--------------------------------5-5--5-5-----|
C--5-5--5-5--5-5--5-5--3-3--3-3--5-5--5-5-----|
G--5-5--5-5--5-5--5-5--3-3--3-3--3-3--3-3-----|
C--5-5--5-5--5-5--5-5--3-3--3-3---------------|
pm.....................................


d------------------------------------|
A------------------------------------|
F--------------------5---------------|
C--5--------8-7-3----5-------7-8-----|
G--5--------8-7-3----3-------7-8-----|
C--5--------8-7-3------------7-8-----|

Verse
'''''
d---------------------|
A---------------------|
F---------------5-----|
C--5-------3----5-----|
G--5-------3----3-----|
C--5-------3----------|

Chorus
''''''
d------------------------------------|
A------------------------------------|
F--------------------5---------------|
C--5--------8-7-3----5-------7-8-----|
G--5--------8-7-3----3-------7-8-----|
C--5--------8-7-3------------7-8-----|

Verse again, then chorus and then...

Bridge
''''''
d-------------------------------------------|
A-------------------------------------------|
F----------------------5-5--5-5-------------|
C--8-8--8-8--8-8-8-8---5-5--5-5--8-7--7-----|
G--8-8--8-8--8-8-8-8---3-3--3-3--8-7--7-----|
C--8-8--8-8--8-8-8-8-------------8-7--7-----|


then it's a very distant replay of the intro riff on one guitar, until a second guitar 
scrapes into the chorus riff again.

the outro riff is *a bit dodgy so correct me if it's wrong*

d------------------------------|
A------------------------------|
F------------------------------|
C--8-8--8-8-10-7-7------5/-----|
G--8-8--8-8-10-7-7------5/-----|
C--8-8--8-8-10-7-7------5/-----|


Thats all!!! comment and rate please!!! much appreciated
Tap to rate this tab
# A B C D E F G H I J K L M N O P Q R S T U V W X Y Z