Song name
# A B C D E F G H I J K L M N O P Q R S T U V W X Y Z

Deathstars - Blitzkrieg tab

My email: broken__seal@hotmail.com

Please mail me if you find any faults in the tab, but it should be correct.
Iīve also tabbed the piano for this song so just ask if you want the notes.
Hope you enjoy the tab.

Tuning for this song is CGCFAD


        (.  PALM MUTE)


INTRO "0.18"
--------------------------------------------------------------------------|
--------------------------------------------------------------------------|
--------------------------------------------------------------------------|
--------3-2-3---------1-0-1---------3-2-3---------6-5-6-------------------|
--------3-2-3---------1-0-1---------3-2-3---------6-5-6-------------------|
-000-0--3-2-3--000-0--1-0-1--000-0--3-2-3--000-0--6-5-6-------------------|
 ....          .....         .....         .....

VERSE  "0.32"
----------------------------------------------------------------------------------------------|
----------------------------------------------------------------------------------------------|
----------------------------------------------------------------------------------------------|
--------3-2-3--------------1-0-1--------------3-2-3--------------6-5-6------------------------|
--------3-2-3--------------1-0-1--------------3-2-3--------------6-5-6------------------------|
-000-0--3-2-3-------000-0--1-0-1-------000-0--3-2-3-------000-0--6-5-6------------------------|
 .....              .....              .....              .....

BRIDGE TO CHORUS  "0.46"
---------------------------------------------------------------------------------------------|
---------------------------------------------------------------------------------------------|
---------------------------------------------------------------------------------------------|
--------3-2-3--------------3-2-3--------------3-2-3--------------3-2-3---------6-5-6---------|
--------3-2-3--------------3-2-3--------------3-2-3--------------3-2-3---------6-5-6---------|
-000-0--3-2-3-------000-0--3-2-3-------000-0--3-2-3-------000-0--3-2-3--000-0--6-5-6---------|
 .....              .....              .....              .....         .....

CHORUS  "1.00"
--------------------------------------------------------------------------|
--------------------------------------------------------------------------|
--------------------------------------------------------------------------|
--------3-2-3---------1-0-1---------3-2-3---------6-5-6-------------------|
--------3-2-3---------1-0-1---------3-2-3---------6-5-6-------------------|
-000-0--3-2-3--000-0--1-0-1--000-0--3-2-3--000-0--6-5-6-------------------|
 .....         .....         .....         .....

VERSE  "1.13"

BRIDGE TO CHORUS  1.27"
----------------------------------------------------------------------------------|
----------------------------------------------------------------------------------|
----------------------------------------------------------------------------------|
--------3-2-3--------------3-2-3--------------3-2-3--------------3-2-3------------|
--------3-2-3--------------3-2-3--------------3-2-3--------------3-2-3------------|
-000-0--3-2-3-------000-0--3-2-3-------000-0--3-2-3-------000-0--3-2-3------------|
 .....              .....              .....              .....

CHORUS  "1.41"

"THIS IS THE END" "2.00"
------------------------------------------------------------------------------|
------------------------------------------------------------------------------|
------------------------------------------------------------------------------|
-12--12--12-12--12--12-12--12-12-10--10--10-10--10--10-10--10-10--------------|
-12--12--12-12--12--12-12--12-12-10--10--10-10--10--10-10--10-10--------------|
-12--12--12-12--12--12-12--12-12-10--10--10-10--10--10-10--10-10--------------|
         .          .      .....         .          .      .....

------------------------------------------------------------------------------|
------------------------------------------------------------------------------|
------------------------------------------------------------------------------|
-8--8--8-8--8--8-8--8--5--5--8-7--7--7-7--7-7---------------------------------|
-8--8--8-8--8--8-8--8--5--5--8-7--7--7-7--7-7---------------------------------|
-8--8--8-8--8--8-8--8--5--5--8-7--7--7-7--7-7---------------------------------|
       .       .                     .    ...

VERSE  "2.13"

BRIDGE TO CHORUS  "2.27"
---------------------------------------------------------------------------------------------|
---------------------------------------------------------------------------------------------|
---------------------------------------------------------------------------------------------|
--------3-2-3--------------3-2-3--------------3-2-3--------------3-2-3---------6-5-6---------|
--------3-2-3--------------3-2-3--------------3-2-3--------------3-2-3---------6-5-6---------|
-000-0--3-2-3-------000-0--3-2-3-------000-0--3-2-3-------000-0--3-2-3--000-0--6-5-6---------|
 .....              .....              .....              .....         .....

[Donīt know if second guitar play something like this]
------------------------------------------------------------------------------------------------------------|
------------------------------------------------------------------------------------------------------------|
------------------------------------------------------------------------------------------------------------|
--------3-2-3--000-0-3-2-3--------3-2-3--000-0-3-2-3---------3-2-3--000-0-3-2-3---------3-2-3--000-0-3-2-3--|
--------3-2-3---------------------3-2-3----------------------3-2-3----------------------3-2-3---------------|
-000-0--3-2-3--------------000-0--3-2-3---------------000-0--3-2-3---------------000-0--3-2-3---------------|
 .....         ..... AH--- .....         ..... AH---  .....         ..... AH---  .....         ..... AH-----|

CHORUS  "2.41"

"FUCK THE WORLD WITH A GUN AND A BROKEN BLADE PART"  "2.56"
------------------------------------------------------------------------------------------|
------------------------------------------------------------------------------------------|
------------------------------------------------------------------------------------------|
-8-----10-----------3-2-3--------6-5-6--8-----10-----7------------------------------------|
-8-----10-----------3-2-3--------6-5-6--8-----10-----7------------------------------------|
-8-----10-----000-0-3-2-3--000-0-6-5-6--8-----10-----7------------------------------------|
              .....        .....                              (SLIDE)

"THIS IS THE END"  "3.15"   YOU PLAY THIS THE SECOND TIME
------------------------------------------------------------------------------|
------------------------------------------------------------------------------|
------------------------------------------------------------------------------|
-12--12--12-12--12--12-12--12-12-10--10--10-10--10--10-10--10-10--------------|
-12--12--12-12--12--12-12--12-12-10--10--10-10--10--10-10--10-10--------------|
-12--12--12-12--12--12-12--12-12-10--10--10-10--10--10-10--10-10--------------|
         .          .      .....         .          .      .....

------------------------------------------------------------------------------|
------------------------------------------------------------------------------|
------------------------------------------------------------------------------|
-8--8--8-8--8--8-8--8--5--5--8-7----7-7---7-7--7------------------------------|
-8--8--8-8--8--8-8--8--5--5--8-7----7-7---7-7--7------------------------------|
-8--8--8-8--8--8-8--8--5--5--8-7----7-7---7-7--7------------------------------|
       .       .
Tap to rate this tab
 
# A B C D E F G H I J K L M N O P Q R S T U V W X Y Z