Guitaretab - guitar tabs
Song name
# A B C D E F G H I J K L M N O P Q R S T U V W X Y Z

Deathstars - Tongues tab

Artist: Deathstars
Song: Tongues
Album: Termination Bliss

Tuning: Standard

(Intro 0:06 - 0:26)

e-----------------------------------------|
B-----------------------------------------|
G-----------------------------------------|   <
D---4-44-4-4-44-----------4-44-4-4-44-----|   Play twice
A---4-44-4-4-44-----------4-44-4-4-44-----|
E---2-22-2-2-22-*3--------2-22-2-2-22-*3--|


E-------------------------------------------------------------|
B-------------------------------------------------------------|
G-------------------------------------------------------------|
D-------------------------------------------------------------|
A-4--4-4--4--4--2--2-2--2--2--9--9-9--9--9--5--5-5--5--5------|
E-2--2-2--2--2--0--0-0--0--0--7--7-7--7--7--3--3-3--3--3------|


E--------------------------------------------------------------|
B--------------------------------------------------------------|
G--------------------------------------------------------------|
D--------------------------------------------------------------|
A-4--4-4--4--4--2--2-2--2--2--9--9-9--9--9--12--12-12--12--12--|
E-2--2-2--2--2--0--0-0--0--0--7--7-7--7--7--10--10-10--10--10--|

Verse (0:27 - 0:35, synth only)
(0:35 - 0:56)

E----------------------------------------------|
B----------------------------------------------|
G----------------------------------------------|
D-4--4-4-4--4-----------------4--4-4-4--4------|   < Play Twice
A-4--4-4-4--4-----------------4--4-4-4--4------|
E-2--2-2-2--2-----------------2--2-2-2--2------|

E----------------------------------------------|
B----------------------------------------------|
G----------------------------------------------|
D-4--4-4--4-2-----7--7-7--7-9------------------|
A-4--4-4--4-2-----7--7-7--7-9------------------|
E-2--2-2--2-0-----5--5-5--5-7------------------|

E-----------------------------------------------------|
B-----------------------------------------------------|
G-----------------------------------------------------|
D-----------------------------------------------------|
A-4--4-4--4-2------9--11----12---11-------------------|
E-2--2-2--2-0------7---9----10----9-------------------|


Chorus (0:57 - 01:16)
[ Tab from: http://www.guitaretab.com/d/deathstars/151387.html ]
E-------------------------------------------------------------|
B-------------------------------------------------------------|
G-------------------------------------------------------------|
D-4--4-4--4-4--2--2-2--2-2--9--9-9--9-9--5--5-5--5-5----------|
A-4--4-4--4-4--2--2-2--2-2--9--9-9--9-9--5--5-5--5-5----------|
E-2--2-2--2-2--0--0-0--0-0--7--7-7--7-7--3--3-3--3-3----------|

E-------------------------------------------------------------|
B-------------------------------------------------------------|
G-------------------------------------------------------------|
D------------------------------------------3------3-----------|
A-4--4-4--4-4--2--2-2--2-2--9--9-9--9-9----3------3-----------|
E-2--2-2--2-2--0--0-0--0-0--7--7-7--7-7----5------5-----------|


E-------------------------------------------------------------|
B-------------------------------------------------------------|
G-------------------------------------------------------------|
D-4--4-4--4-4--2--2-2--2-2--9--9-9--9-9--5--5-5--5-5----------|
A-4--4-4--4-4--2--2-2--2-2--9--9-9--9-9--5--5-5--5-5----------|
E-2--2-2--2-2--0--0-0--0-0--7--7-7--7-7--3--3-3--3-3----------|


E-------------------------------------------------------------|
B-------------------------------------------------------------|
G-------------------------------------------------------------|
D-4--4-4--4-4--2--2-2--2-2--9--9-9--9-9-----12---12-----------|
A-4--4-4--4-4--2--2-2--2-2--9--9-9--9-9-----12---12-----------|
E-2--2-2--2-2--0--0-0--0-0--7--7-7--7-7-----10---10-----------|

After the first chorus basically go back to the beginning of this tab and play it 
again and then after youve done that - follo this :BREAKDOWN (02:16 - 02:27)

E-------------------------------------------------------|
B-------------------------------------------------------|
G-------------------------------------------------------|  < Play
D-5-5------2-2------5-5------2-2-----2------------------|    twice
A-5-5------2-2------5-5------2-2-----2------------------|
E-3-3------0-0------3-3------0-0-----0------------------|


Then after interlude

E-------------|
B-------------|
G-------------|
D-9-11--12-12-|
A-9-11--12-11-|
E-7--9--10--9-|

Then into chorus

And after chorus

E------|
B------|
G------|
D-4--4-|          To End.
A-4--4-|
E-2--2-|

Any queries you want to post please post to ash_upton87@hotmail.com
Related for Tongues tab