Song name
# A B C D E F G H I J K L M N O P Q R S T U V W X Y Z

Deathstars - Greatest Fight On Earth tab

=====================================================
             "Greatest Fight On Earth"

                    Deathstars
                Termination Bliss

=====================================================

Tabbed By: Filip FiŠER From Serbia Petrovaradin (Exit Festival)


=====================================================

 - Tab isn't Finished But It will Be
 - Rif 1 is 100% correct

Tuning: Guitar Standard Tuning (EADGBE)

Legend:  * Palm Mute
         ^ bend


 Riff 1
 0:42-1:02
|----------------------------------|
|----------------------------------|
|----------------------------------|
|---4-4--4-4-4--3-3--5-6-6---------|  x4
|---2-2--2-2-2--1-1--3-4-4---------|
|----------------------------------|
    * *  * * *  * *  * * *    


 Then
 1:02-1:05
|----------------------------------|
|----------------------------------|
|----------------------------------|
|---4-4---3-5-6--------------------|
|---2-2---1-3-4--------------------|
|----------------------------------|
    * *


 Verse

 Chorus







 Riff 1
 1:44-2:04
|----------------------------------|
|----------------------------------|
|----------------------------------|
|---4-4--4-4-4--3-3--5-6-6---------|  x4
|---2-2--2-2-2--1-1--3-4-4---------|
|----------------------------------|
    * *  * * *  * *  * * *    


 Then
 2:04-2:07
|----------------------------------|
|----------------------------------|
|----------------------------------|
|---4-4---3-5-6--------------------|
|---2-2---1-3-4--------------------|
|----------------------------------|
    * *



 Verse

 Chorus



 "Break Down" 
 2:27-2:47
|----------------------------------|
|----------------------------------|
|----------------------------------|
|---4-4--4-4--4--3-3--3-3-5-6------|
|---2-2--2-2--2--1-1--1-1-3-4------|
|----------------------------------|
    * *  * *  ^  * *  *


|----------------------------------|
|----------------------------------|
|----------------------------------|
|---4-4--4-4--4--3-3--3-2-4-5------|
|---2-2--2-2--2--1-1--1-0-2-3------|
|----------------------------------|
    * *  * *  ^  * *  *


|----------------------------------|
|----------------------------------|
|----------------------------------|
|---4-4--4-4--4--3-3--3-3-5-6------|
|---2-2--2-2--2--1-1--1-1-3-4------|
|----------------------------------|
    * *  * *  ^  * *  *

(This part isn't finished)
|----------------------------------|
|----------------------------------|
|----------------------------------|
|---4-4--4-4--4--------------------|
|---2-2--2-2--2--------------------|
|----------------------------------|
    * *  * *  ^



 Chorus
Tap to rate this tab
# A B C D E F G H I J K L M N O P Q R S T U V W X Y Z