Song name
# A B C D E F G H I J K L M N O P Q R S T U V W X Y Z

Deathstars - Night Electric Night tab

=========================================================

                "Night Electric Night"
                    
                      Deathstars

                 Night Electric Night

=========================================================


Tabbed by: John Moores  

Tuning: Drop C (CGCFAD)

Legend: * = Palm Mute
        ~ = Let ring


Intro

0:26
|--------------------------------------------------------|
|--------------------------------------------------------|
|--------------------------------------------------------|
|---------------6-------6---------3---1--0---------------|   x4
|---------------6-------6---------3---1--0---------------|
|----0--0-0-0---6--0-0--6--0-0----3---1--0---------------|
     *  * * *      * *     * *    

|--------------------------------------------------------|
|------------6~------------5-------------4---------------|
|------------5~------------4-------------3---------------|
|----3~~-----3~-------2----2------1------1---------------|
|----3~~--------------2-----------1----------------------|
|----3~~--------------2-----------1----------------------|



|--------------------------------------------------------|
|--------------------------------------------------------|
|--------------------------------------------------------|
|---------------6-------6---------3---1--0---------------|   x2
|---------------6-------6---------3---1--0---------------|
|----0--0-0-0---6--0-0--6--0-0----3---1--0---------------|
     *  * * *      * *     * *



Verse 1

0:50
|--------------------------------------------------------|
|--------------------------------------------------------|
|--------------------------------------------------------|
|--------------------------------------------------------|
|--------------------------------------------------------|
|--------------------------------------------------------|

1:14
|--------------------------------------------------------|
|--------------------------------------------------------|
|--------------------------------------------------------|
|---------------6-------6---------3---1--0---------------|   x4
|---------------6-------6---------3---1--0---------------|
|----0--0-0-0---6--0-0--6--0-0----3---1--0---------------|
     *  * * *      * *     * *


Verse 2

1:25
|--------------------------------------------------------|
|--------------------------------------------------------|
|--------------------------------------------------------|
|--------------------------------------------------------|
|--------------------------------------------------------|
|--------------------------------------------------------|


1:49
|--------------------------------------------------------|
|------------6~------------5~-----------4~---------------|
|------------5~------------4~-----------3~---------------|
|----3~~-----3~------------2~-----1-----1~---------------|
|----3~~--------------2-----------1----------------------|
|----3~~--------------2-----------1----------------------|

|--------------------------------------------------------|
|--------------------------------------------------------|
|--------------------------------------------------------|
|---------------6-------6---------3---1--0---------------|   x2
|---------------6-------6---------3---1--0---------------|
|----0--0-0-0---6--0-0--6--0-0----3---1--0---------------|
     *  * * *      * *     * *

|--------------------------------------------------------|
|------------6-------------5-------------4---------------|
|------------5-------------4-------------3---------------|
|----3~~-----3--------2----2------1------1-------7\\-----|
|----3~~--------------2-----------1--------------5\\-----|
|----3~~--------------2-----------1--------------0-------|



Chorus

2:10
|--------------------------------------------------------|
|--------------------------------------------------------|
|--------------------------------------------------------|
|---7-------7--------7-----5----3----3--5-------7--------|
|---5--55---5--55----5-----3----3----3--5-------7--------|
|---0-------0--------0-----3-33-3-33-3--5---7-7-7--------|
       **      **            **   **        * *   


2:22
|--------------------------------------------------------|
|--------------------------------------------------------|
|--------------------------------------------------------|
|---------------6-------6---------3---1--0---------------|   x4
|---------------6-------6---------3---1--0---------------|
|----0--0-0-0---6--0-0--6--0-0----3---1--0---------------|
     *  * * *      * *     * *



Verse 3

2:34
|--------------------------------------------------------|
|--------------------------------------------------------|
|--------------------------------------------------------|
|--------------------------------------------------------|
|--------------------------------------------------------|
|--------------------------------------------------------|


2:58
|--------------------------------------------------------|
|------------6-------------5-------------4---------------|
|------------5-------------4-------------3---------------|
|----3~~-----3--------2----2------1------1---------------|
|----3~~--------------2-----------1----------------------|
|----3~~--------------2-----------1----------------------|



3:03
|--------------------------------------------------------|
|--------------------------------------------------------|
|--------------------------------------------------------|
|---------------6-------6---------3---1--0---------------|   x2
|---------------6-------6---------3---1--0---------------|
|----0--0-0-0---6--0-0--6--0-0----3---1--0---------------|
     *  * * *      * *     * *

|--------------------------------------------------------|
|------------6-------------5-------------4---------------|
|------------5-------------4-------------3---------------|
|----3~~-----3--------2----2------1------1------7\\------|
|----3~~--------------2-----------1-------------5\\------|
|----3~~--------------2-----------1-------------0--------|



Chorus

3:18
|--------------------------------------------------------|
|--------------------------------------------------------|
|--------------------------------------------------------| x2
|---7-------7--------7-----5----5----5--5-------7--------|
|---5--55---5--55----5-----3----3----3--5-------7--------|
|---0-------0--------0-----3-33-3-33-3--5---7-7-7--------|
       **      **            **   **        * *   


3:42
|--------------------------------------------------------|
|--------------------------------------------------------|
|--------------------------------------------------------|
|---------------6-------6---------3---1--0---------------|   x3
|---------------6-------6---------3---1--0---------------|
|----0--0-0-0---6--0-0--6--0-0----3---1--0---------------|
     *  * * *      * *     * *


3:50
|--------------------------------------------------------|
|--------------------------------------------------------|
|--------------------------------------------------------|
|---------------6-------6---------12-12--10--12--12\\----|
|---------------6-------6---------12-12--10--12--12\\----|
|----0--0-0-0---6--0-0--6--0-0----12-12--10--12--12\\----|
     *  * * *      * *     * *


Tap to rate this tab
# A B C D E F G H I J K L M N O P Q R S T U V W X Y Z