Song name
# A B C D E F G H I J K L M N O P Q R S T U V W X Y Z

Deathstars - Opium tab

=====================================================
                     "Opium"

                    Deathstars
               Night Electric Night

=====================================================

Tabbed By: John Moores
           mooresjw@email.uc.edu


Tuning: Drop C (CGCFAD)

Legend: * = Palm mute

There really is one main riff this entire song. I almost thought that
actually tabbing it out would be pointless, but I'm sure someone might 
appreciate it.



Intro

0:10
|--------------------------------------------------|
|--------------------------------------------------|
|--------------------------------------------------|
|--2--2-----2----2---2--2------2----2---2--2-------|
|--2--2-----2----2---2--2------2----2---2--2-------|
|--2--2-----2----2---2--2------2----2---2--2-------|


|--------------------------------------------------|
|--------------------------------------------------|
|--------------------------------------------------|
|--2---2----0--0--------7--7-----------------------|
|--2---2----0--0--------7--7-----------------------|
|--2---2----0--0----0---7--7-----------------------|
                    *

|--------------------------------------------------|
|--------------------------------------------------|
|--------------------------------------------------|
|--2--2-----2----2---2--2------2----2---2--2-------|
|--2--2-----2----2---2--2------2----2---2--2-------|
|--2--2-----2----2---2--2------2----2---2--2-------|

|--------------------------------------------------|
|--------------------------------------------------|
|--------------------------------------------------|
|--2---2----0------5-------------------------------|
|--2---2----0------3-------------------------------|
|--2---2----0--------------------------------------|


Verse 1

0:31
|--------------------------------------------------|
|--------------------------------------------------|
|--------------------------------------------------|
|--------------------------------------------------|
|--------------------------------------------------|
|--------------------------------------------------|


Chorus (main riff)

1:11                                                    _
|--------------------------------------------------|     |
|--------------------------------------------------|     |
|--------------------------------------------------|     |
|--2--2-----2----2---2--2------2----2---2--2-------|     |
|--2--2-----2----2---2--2------2----2---2--2-------|     |
|--2--2-----2----2---2--2------2----2---2--2-------|     |
                                                         |
                                                         |
|--------------------------------------------------|     |
|--------------------------------------------------|     |
|--------------------------------------------------|     |
|--2---2----0--0--------7--7-----------------------|     |
|--2---2----0--0--------7--7-----------------------|     |
|--2---2----0--0----0---7--7-----------------------|     |
                    *                                    |
                                                         |
|--------------------------------------------------|     |
|--------------------------------------------------|     |
|--------------------------------------------------|     |
|--2--2-----2----2---2--2------2----2---2--2-------|     |
|--2--2-----2----2---2--2------2----2---2--2-------|     |
|--2--2-----2----2---2--2------2----2---2--2-------|     |
                                                         |
|--------------------------------------------------|     |
|--------------------------------------------------|     |
|--------------------------------------------------|     |
|--2---2----0------5~~~----------------------------|     |
|--2---2----0------3~~~----------------------------|     |
|--2---2----0--------------------------------------|    _|



Verse 2

1:34
|--------------------------------------------------|
|--------------------------------------------------|
|--------------------------------------------------|
|--------------------------------------------------|
|--------------------------------------------------|
|--------------------------------------------------|


Chorus

2:16                                                    _
|--------------------------------------------------|     |
|--------------------------------------------------|     |
|--------------------------------------------------|     |
|--2--2-----2----2---2--2------2----2---2--2-------|     |
|--2--2-----2----2---2--2------2----2---2--2-------|     |
|--2--2-----2----2---2--2------2----2---2--2-------|     |
                                                         |
                                                         |
|--------------------------------------------------|     |
|--------------------------------------------------|     |
|--------------------------------------------------|     |
|--2---2----0--0--------7--7-----------------------|     |
|--2---2----0--0--------7--7-----------------------|     |
|--2---2----0--0----0---7--7-----------------------|     |
                    *                                    |
                                                         |
|--------------------------------------------------|     |
|--------------------------------------------------|     |
|--------------------------------------------------|     |
|--2--2-----2----2---2--2------2----2---2--2-------|     |
|--2--2-----2----2---2--2------2----2---2--2-------|     |
|--2--2-----2----2---2--2------2----2---2--2-------|     |
                                                         |
|--------------------------------------------------|     |
|--------------------------------------------------|     |
|--------------------------------------------------|     |
|--2---2----0------5~~~----------------------------|     |
|--2---2----0------3~~~----------------------------|     |
|--2---2----0--------------------------------------|    _|



Bridge

2:36
|--------------------------------------------------|
|--------------------------------------------------|
|--------------------------------------------------|
|--------------------------------------------------|
|--------------------------------------------------|
|--------------------------------------------------|



2:54
|--------------------------------------------------|
|--------------------------------------------------|
|--------------------------------------------------|
|----7~------5~~-----------------------------------|
|----5~------3~~-----------------------------------|
|----0~--------------------------------------------|


2:56                                                    _
|--------------------------------------------------|     |
|--------------------------------------------------|     |
|--------------------------------------------------|     |
|--2--2-----2----2---2--2------2----2---2--2-------|     |
|--2--2-----2----2---2--2------2----2---2--2-------|     |
|--2--2-----2----2---2--2------2----2---2--2-------|     |
                                                         |
                                                         |
|--------------------------------------------------|     |
|--------------------------------------------------|     |
|--------------------------------------------------|     |
|--2---2----0--0--------7--7-----------------------|     |
|--2---2----0--0--------7--7-----------------------|     |
|--2---2----0--0----0---7--7-----------------------|     |--x3
                    *                                    |
                                                         |
|--------------------------------------------------|     |
|--------------------------------------------------|     |
|--------------------------------------------------|     |
|--2--2-----2----2---2--2------2----2---2--2-------|     |
|--2--2-----2----2---2--2------2----2---2--2-------|     |
|--2--2-----2----2---2--2------2----2---2--2-------|     |
                                                         |
|--------------------------------------------------|     |
|--------------------------------------------------|     |
|--------------------------------------------------|     |
|--2---2----0------5~~~----------------------------|     |
|--2---2----0------3~~~----------------------------|     |
|--2---2----0--------------------------------------|    _|



Finish with this

|--------------------------------------------------|     
|--------------------------------------------------|    
|--------------------------------------------------|     
|--2--2-----2----2---2--2------2----2---2--2-------|    
|--2--2-----2----2---2--2------2----2---2--2-------|     
|--2--2-----2----2---2--2------2----2---2--2-------|   
                                                        
                                                         
|--------------------------------------------------|
|--------------------------------------------------|
|--------------------------------------------------|
|----2--2---2--2------7~-------5~~-----------------|
|----2--2---2--2------5~-------3~~-------0h2\------|
|----2--2---2--2------0~-----------------0h2\------|

Tap to rate this tab
 
# A B C D E F G H I J K L M N O P Q R S T U V W X Y Z