Song name
# A B C D E F G H I J K L M N O P Q R S T U V W X Y Z

Deathstars - The Last Ammunition tab

===========================================================================

                           The Last Ammunition
===========================================================================

                             By:  Deathstars
                         Album: Termination Bliss

                          Tabbed by: John Moores
                          mooresjw@email.uc.edu

        It all should be pretty accurate, if you have any questions, 
                 leave a comment or email me or something.

Drop C Tuning (CGCFAD)

* = Palm Mute
@ = Pinched harmonic
x = muted


Intro.

0:13

|-------------------------------------------------------|
|-------------------------------------------------------|
|-------------------------------------------------------|
|-----8---8--8--11--8--7--0-----------------------------|
|-----8---8--8--11--8--7--0-----------------------------|
|-----8---8--8--11--8--7--0-----------------------------|


0:17

|--------------------------------------------------------------------------|
|--------------------------------------------------------------------------|
|--------------------------------------------------------------------------|
|--------------------------------------------------------------6-6---------|
|------0--0--0--0-------0--0--3-3---------0--0--0--------0--0--6-6---------|
|---00-0--0--0--0----00-0--0--3-3------00-0--0--0-----00-0--0--6-6---------|
    ** *             ** *              ** *           ** *

|--------------------------------------------------------------------------|
|--------------------------------------------------------------------------|
|--------------------------------------------------------------------------|
|-----------------------------------------------------8---8--8--11--7--0---|
|------0--0--0--0-------0--0--3-3---------0--0--0-----8---8--8--11--7--0---|
|---00-0--0--0--0----00-0--0--3-3------00-0--0--0-----8---8--8--11--7--0---|
    ** *             ** *              ** *


Verse 1

0:33


0:36

|------------------------------------------|
|------------------------------------------|
|------------------------------------------|
|------------------------------------------|
|---------0--0--0--0----------0--0--3-3----|
|------00-0--0--0--0-------00-0--0--3-3----|
       ** *                ** *            

0:44

|-----------------------------------------------|
|-----------------------------------------------|
|-----------------------------------------------|
|--------------------------------6-6------------|
|---------0--0--0----------0--0--6-6------------|
|------00-0--0--0-------00-0--0--6-6------------|
       ** *             ** *

0:51

|------------------------------------------|
|------------------------------------------|
|------------------------------------------|
|------------------------------------------|
|---------0--0--0--0----------0--0--3-3----|
|------00-0--0--0--0-------00-0--0--3-3----|
       ** *                ** *      

0:59

|------------------------------------------|
|------------------------------------------|
|------------------------------------------|
|-----------------------------------2-3----|
|---------0--0--0--0----------0--0--2-3----|
|------00-0--0--0--0-------00-0--0--2-3----|
       ** *                ** *   


Pre-Chorus

1:03

|------------------------------------------|
|------------------------------------------|
|------------------------------------------|
|------------------------------------------|
|---5--5--5---3---7-----8--8--8--10----7---|
|---5--5--5---3---7-----8--8--8--10----7---|


Chorus

1:10

|------------------------------------------|
|------------------------------------------|
|------------------------------------------|
|------------------------------------------|
|---0--00-0-0---0-0---0--00-0-0---0-0-0----|
|---0--00-0-0---0-0---0--00-0-0---0-0-0----|
       ** * *   * *      ** * *   * * *

|------------------------------------------|
|------------------------------------------|
|------------------------------------------|
|------------------------------------------|
|---5--55-5-5---5-5-5---3--7-7-7-7---------|
|---5--55-5-5---5-5-5---3--7-7-7-7---------|
       ** * *   * * *      * * * *

|------------------------------------------|
|------------------------------------------|
|------------------------------------------|
|------------------------------------------|
|---0--00-0-0---0-0---0--00-0-0---0-0-0----|
|---0--00-0-0---0-0---0--00-0-0---0-0-0----|
       ** * *   * *      ** * *   * * *

|------------------------------------------|
|------------------------------------------|
|------------------------------------------|
|------------------------------------------|
|--5--55-5-5---5-5-5---8---8--8--11--7--0--|
|--5--55-5-5---5-5-5---8---8--8--11--7--0--|
       ** * *   * * *      

Intro Riff

1:26

|--------------------------------------------------------------------------|
|--------------------------------------------------------------------------|
|--------------------------------------------------------------------------|
|--------------------------------------------------------------6-6---------|
|------0--0--0--0-------0--0--3-3---------0--0--0--------0--0--6-6---------|
|---00-0--0--0--0----00-0--0--3-3------00-0--0--0-----00-0--0--6-6---------|
    ** *             ** *              ** *           ** *

|--------------------------------------------------------------------------|
|--------------------------------------------------------------------------|
|--------------------------------------------------------------------------|
|-----------------------------------------------------8---8--8--11--7--0---|
|------0--0--0--0-------0--0--3-3---------0--0--0-----8---8--8--11--7--0---|
|---00-0--0--0--0----00-0--0--3-3------00-0--0--0-----8---8--8--11--7--0---|
    ** *             ** *              ** *


Verse 2

1:41


1:45

|------------------------------------------|
|------------------------------------------|
|------------------------------------------|
|------------------------------------------|
|---------0--0--0--0----------0--0--3-3----|
|------00-0--0--0--0-------00-0--0--3-3----|
       ** *                ** *            

1:53

|-----------------------------------------------|
|-----------------------------------------------|
|-----------------------------------------------|
|--------------------------------6-6------------|
|---------0--0--0----------0--0--6-6------------|
|------00-0--0--0-------00-0--0--6-6------------|
       ** *             ** *

2:00

|------------------------------------------|
|------------------------------------------|
|------------------------------------------|
|------------------------------------------|
|---------0--0--0--0----------0--0--3-3----|
|------00-0--0--0--0-------00-0--0--3-3----|
       ** *                ** *            

2:08

|------------------------------------------|
|------------------------------------------|
|------------------------------------------|
|----------------------3--2--0----3--2--0--|
|---------0--0--0--0---3--2--0----3--2--0--|
|------00-0--0--0--0---3--2--0----3--2--0--|
       ** *            


Pre-Chorus

2:11

|------------------------------------------|
|------------------------------------------|
|------------------------------------------|
|------------------------------------------|
|---5--5--5---3---7-----8--8--8--10--------|
|---5--5--5---3---7-----8--8--8--10--------|


Chorus

2:19

|------------------------------------------|
|------------------------------------------|
|------------------------------------------|
|------------------------------------------|
|---0--00-0-0---0-0---0--00-0-0---0-0-0----|
|---0--00-0-0---0-0---0--00-0-0---0-0-0----|
       ** * *   * *      ** * *   * * *

|------------------------------------------|
|------------------------------------------|
|------------------------------------------|
|------------------------------------------|
|---5--55-5-5---5-5-5---3--7-7-7-7---------|
|---5--55-5-5---5-5-5---3--7-7-7-7---------|
       ** * *   * * *      * * * *

|------------------------------------------|
|------------------------------------------|
|------------------------------------------|
|------------------------------------------|
|---0--00-0-0---0-0---0--00-0-0---0-0-0----|
|---0--00-0-0---0-0---0--00-0-0---0-0-0----|
       ** * *   * *      ** * *   * * *

|------------------------------------------|
|------------------------------------------|
|------------------------------------------|
|------------------------------------------|
|--5--55-5-5---5-5-5---8---8--8--11--7--0--|
|--5--55-5-5---5-5-5---8---8--8--11--7--0--|
       ** * *   * * *      


Intro Riff

2:34

|--------------------------------------------------------------------------|
|--------------------------------------------------------------------------|
|--------------------------------------------------------------------------|
|--------------------------------------------------------------6-6---------|
|------0--0--0--0-------0--0--3-3---------0--0--0--------0--0--6-6---------|
|---00-0--0--0--0----00-0--0--3-3------00-0--0--0-----00-0--0--6-6---------|
    ** *             ** *              ** *           ** *

|--------------------------------------------------------------------------|
|--------------------------------------------------------------------------|
|--------------------------------------------------------------------------|
|----------------------------------------------------8---8--8--11--11--11--|
|------0--0--0--0-------0--0--3-3--------0--0--0-----8---8--8--11--11--11--|
|---00-0--0--0--0----00-0--0--3-3-----00-0--0--0-----8---8--8--11--11--11--|
    ** *             ** *             ** *

2:50

|------------------------------------------|
|------------------------------------------|
|------------------------------------------|
|------------------------------------------|
|---5-------3---7-----8------10----7-------|
|---5-------3---7-----8------10----7-------|


2:57

|------------------------------------------|
|------------------------------------------|
|------------------------------------------|
|------------------------------------------|
|---0--------------------------------------|
|---0--------------------------------------|
    *
    
    ^- Heavier Palm mute than usual so it's just a boom - just listen to it

3:14
                                             _
|------------------------------------------|  |
|------------------------------------------|  |
|------------------------------------------|  |
|------------------------------------------|  |
|---0--00-0-0---0-0---0--00-0-0---0-0-0----|  |
|---0--00-0-0---0-0---0--00-0-0---0-0-0----|  |
       ** * *   * *      ** * *   * * *       |
                                              |======  x5
                                              |     
|------------------------------------------|  |
|------------------------------------------|  |
|------------------------------------------|  |
|------------------------------------------|  |
|---5--55-5-5---5-5-5---3--7-7-7-7---------|  |
|---5--55-5-5---5-5-5---3--7-7-7-7---------|  |
       ** * *   * * *      * * * *            |
                                             _|

3:51

|------------------------------------------|
|------------------------------------------|
|------------------------------------------|
|------------------------------------------|
|---0--00-0-0---0-0---0--00-0-0---0-0-0----|
|---0--00-0-0---0-0---0--00-0-0---0-0-0----|
       ** * *   * *      ** * *   * * *

|------------------------------------------|
|------------------------------------------|
|------------------------------------------|
|------------------------------------------|
|--5--55-5-5---5-5-5---8---8--8--11--7--0--|
|--5--55-5-5---5-5-5---8---8--8--11--7--0--|
       ** * *   * * *      


Tap to rate this tab
 
# A B C D E F G H I J K L M N O P Q R S T U V W X Y Z