Song name
# A B C D E F G H I J K L M N O P Q R S T U V W X Y Z

Deathstars - The Rape tab

===========================================================

                       The Rape
===========================================================

By:  Deathstars
Album: Synthetic Generation

Tabbed by: John Moores
mooresjw@email.uc.edu

I apologize if the Chorus is hard to time right, the song
is really muddy and hard to hear, but I think it's about
right.

Drop C Tuning (CGCFAD)

* = Palm Mute
@ = Pinched harmonic
x = muted




Intro
0:00/0:01
|-------------------------------------------------------|
|-------------------------------------------------------|
|-------------------------------------------------------|
|---5/7---6\5-----5/7---6\5---8888----------------------|
|---3/5---6\5-----3/5---6\5---6666----------------------|
|---------6\5-----------6\5-----------------------------|
                                                          x2
|-------------------------------------------------------|
|-------------------------------------------------------|
|-------------------------------------------------------|
|---5/7---6\5-----5/7---6\5---3333----------------------|
|---3/5---6\5-----3/5---6\5---3333----------------------|
|---------6\5-----------6\5---3333----------------------|


Repeat Intro
0:21


Verse 1
0:31

|-------------------------------------------------------|
|-------------------------------------------------------|
|-------------------------------------------------------|
|----00----------00----------00----------00-------------|
|----00----------00----------00----------00-------------|
|----00----------00----------00----------00-------------|


Pre-chorus
0:50
|-------------------------------------------------------|
|-------------------------------------------------------|
|-------------------------------------------------------|
|-----------5-----7-----5----7--------------------------|
|---//\\\---5-----7-----5----7--------------------------|
|---//\\\---5-----7-----5----7--------------------------|


Chorus
1:01

|-------------------------------------------------------|
|-------------------------------------------------------|
|-------------------------------------------------------|
|-------2/3---------2/3---------2/3---------2/3---------| x4
|--0-00-2/3--0--0-0-2/3-0--0-00-2/3--0--0-0-2/3----3*---|
|--0-00-2/3--0--0-0-2/3-0--0-00-2/3--0--0-0-2/3---------|

Intro Riff
1:21

|-------------------------------------------------------|
|-------------------------------------------------------|
|-------------------------------------------------------|
|---5/7---6\5-----5/7---6\5---8888----------------------|
|---3/5---6\5-----3/5---6\5---6666----------------------|
|---------6\5-----------6\5-----------------------------|
                                                          x2
|-------------------------------------------------------|
|-------------------------------------------------------|
|-------------------------------------------------------|
|---5/7---6\5-----5/7---6\5---3333----------------------|
|---3/5---6\5-----3/5---6\5---3333----------------------|
|---------6\5-----------6\5---3333----------------------|


Verse 2
1:32

|-------------------------------------------------------|
|-------------------------------------------------------|
|-------------------------------------------------------|
|----00----------00----------00----------00-------------|
|----00----------00----------00----------00-------------|
|----00----------00----------00----------00-------------|


Pre-chorus
1:51
|-------------------------------------------------------|
|-------------------------------------------------------|
|-------------------------------------------------------|
|-----------5-----7-----5----7--------------------------|
|---//\\\---5-----7-----5----7--------------------------|
|---//\\\---5-----7-----5----7--------------------------|


Chorus
2:02

|-------------------------------------------------------|
|-------------------------------------------------------|
|-------------------------------------------------------|
|-------2/3---------2/3---------2/3---------2/3---------| x4
|--0-00-2/3--0--0-0-2/3-0--0-00-2/3--0--0-0-2/3----3*---|
|--0-00-2/3--0--0-0-2/3-0--0-00-2/3--0--0-0-2/3---------|


Bridge
2:22

|-------------------------------------------------------|
|-------------------------------------------------------|
|-------------------------------------------------------|
|-------------------0---7---------11--11--11-11---------|
|--0-00-2/3--0--0-0-0---7-----7---11--11--11-11---------|
|--0-00-2/3--0--0-0-0---7-77--7---11--11--11-11---------|
                                                           x2
|-------------------------------------------------------|
|-------------------------------------------------------|
|-------------------------------------------------------|
|-------------------0---7---------5--5--5-5------3------|
|--0-00-2/3--0--0-0-0---7-----7---5--5--5-5------3------|
|--0-00-2/3--0--0-0-0---7-77--7---5--5--5-5------3------|


Verse 3
2:42

|-----------------------------------------------------|
|-----------------------------------------------------|
|-----------------------------------------------------|
|----00----------00----------11-----------------------|
|----00----------00----------11-----------------------|
|----00----------00----------11-----------------------|
                             ^
                            This is one strike at the 11
                          Not 2 hits on the 1.


Pre-chorus
2:52
|--------------------------------------------------|
|--------------------------------------------------|
|--------------------------------------------------|
|------5-----7-----5----7--------------------------|
|------5-----7-----5----7--------------------------|
|------5-----7-----5----7--------------------------|


Chorus
3:02

|-------------------------------------------------------|
|-------------------------------------------------------|
|-------------------------------------------------------|
|-\------2/3---------2/3---------2/3---------2/3--------| x4
|-\-0-00-2/3--0--0-0-2/3-0--0-00-2/3--0--0-0-2/3---3*---|
|-\-0-00-2/3--0--0-0-2/3-0--0-00-2/3--0--0-0-2/3--------|


Intro Riff
3:22

|-------------------------------------------------------|
|-------------------------------------------------------|
|-------------------------------------------------------|
|---5/7---6\5-----5/7---6\5---8888----------------------|
|---3/5---6\5-----3/5---6\5---6666----------------------|
|---------6\5-----------6\5-----------------------------|
                                                          x4
|-------------------------------------------------------|
|-------------------------------------------------------|
|-------------------------------------------------------|
|---5/7---6\5-----5/7---6\5---3333----------------------|
|---3/5---6\5-----3/5---6\5---3333----------------------|
|---------6\5-----------6\5---3333----------------------|


End the song with an open C5, like so:
|------------------------------|
|------------------------------|
|------------------------------|
|---0--------------------------|
|---0--------------------------|
|---0--------------------------|


Tap to rate this tab
# A B C D E F G H I J K L M N O P Q R S T U V W X Y Z