Song name
# A B C D E F G H I J K L M N O P Q R S T U V W X Y Z

Deathstars - Death Dies Hard tab

===========================================================

                        Death Dies Hard
===========================================================

By:  Deathstars
Album: Night Electric Night

Tabbed by: John Moores
mooresjw@email.uc.edu



Drop C Tuning (CGCFAD)

* = Palm Mute
@ = Pinched harmonic
x = muted

Intro/Main Riff
0:05

|---------------------------|
|---------------------------|
|---------------------------|
|---9------5-------2--------| 
|---9------5-------2--------|
|---9------5-------2--------|

                               x2
|---------------------------|
|---------------------------|
|---------------------------|
|---9------5-------7--------| 
|---9------5-------7--------|
|---9------5-------7--------|



Verse 1
0:20

Nothing is technically played, but this is the pattern of
the keyboard

|----------------------------|
|----------------------------|
|----------------------------|
|------------------2---------|
|---2----5--4----------4-----|
|---------------5------------|


Pre-chorus
0:48

|---------------------------------------|
|---------------------------------------|
|---------------2---4-------------------|
|---5-------2---2---4--5---2--4---------|
|---5--4----2---0---2--5---2--444-------|
|---5--4----2----------5---2--444-------|

Chorus/Main Riff
1:02

|---------------------------|
|---------------------------|
|---------------------------|
|---9------5-------2--------| 
|---9------5-------2--------|
|---9------5-------2--------|

                               x2
|---------------------------|
|---------------------------|
|---------------------------|
|---9------5-------7--------| 
|---9------5-------7--------|
|---9------5-------7--------|


Verse 2
1:17

Again for the keys
|----------------------------|
|----------------------------|
|----------------------------|
|------------------2---------|
|---2----5--4----------4-----|
|---------------5------------|


Pre-chorus
1:44

|---------------------------------------|
|---------------------------------------|
|---------------2---4-------------------|
|---5-------2---2---4--5---2--4---------|
|---5--4----2---0---2--5---2--444-------|
|---5--4----2----------5---2--444-------|


Chorus/Main Riff
1:59

|---------------------------|
|---------------------------|
|---------------------------|
|---9------5-------2--------| 
|---9------5-------2--------|
|---9------5-------2--------|

                               x2
|---------------------------|
|---------------------------|
|---------------------------|
|---9------5-------7--------| 
|---9------5-------7--------|
|---9------5-------7--------|


Bridge
2:13

|------------------------------------|
|------------------------------------|
|------------------------------------|
|---9~~-----------9~~----------------|
|---9~~-----------9~~----------------|
|---9~~-----------9~~----------------|


Chorus/Main Riff
2:42

|---------------------------|
|---------------------------|
|---------------------------|
|---9------5-------7--------| x2
|---9------5-------7--------|
|---9------5-------7--------|

|------------------------------------------------|
|------------------------------------------------|
|------------------------------------------------|
|---9------5-------2-----9------5-------7--------|
|---9------5-------2-----9------5-------7--------|
|---9------5-------2-----9------5-------7--------|


Tap to rate this tab
 
# A B C D E F G H I J K L M N O P Q R S T U V W X Y Z