Song name
# A B C D E F G H I J K L M N O P Q R S T U V W X Y Z

Deathstars - Synthetic Generation tab

===========================================================

                   Synthetic Generation
===========================================================

By:  Deathstars
Album: Synthetic Generation

Tabbed by: John Moores
mooresjw@email.uc.edu


While tabbing this song, I am pretty certain it was 
recorded in Drop B, giving the main chord of the chorus
the lowest tone possible, vs the octave up. But I have 
used, and tabbed it out in Drop C, and it sounds pretty 
good just the same, almost hard to tell a difference, but 
here it is.


Drop C Tuning (CGCFAD)

* = Palm Mute
@ = Pinched harmonic
x = muted

Intro/Main Riff
0:07

|--------------|---------------------|
|--------------|---------------------|
|--------------|---------------------|
|--------------|---------------------|  x7
|--444-4-44-4--|---4444-4-44-4-------|
|--------------|---------------------|
   *** * ** *      **** * ** *

Verse 1
0:21

|-------------------------------------------------|
|-------------------------------------------------|
|--------Nothing is played during-----------------|
|--------------this part--------------------------|
|-------------------------------------------------|
|-------------------------------------------------|


Pre-Chorus
0:35

|-------------------------------------------------|
|-------------------------------------------------|
|---2---5--6----------2---5-----------------------|
|---2---5--6---6------2---5--6--------------------|
|---0---3--4---6------0---3--6--------------------|
|--------------6-------------6--------------------|


Chorus
0:41

|---------------------|
|---------------------|
|---------------------|
|---6---6-4---7-------|  x3
|---4---6-4---7-------|
|-------6-4---7-------|

|---------------------|
|---------------------|
|---------------------|
|--7-----10-----------|
|--7-----10-----------|
|--7-----10-----------|


Intro Riff
0:55

|--------------|---------------------|
|--------------|---------------------|
|--------------|---------------------|
|--------------|---------------------|  x7
|--444-4-44-4--|---4444-4-44-4-------|
|--------------|---------------------|
   *** * ** *      **** * ** *

Verse 2
1:09

|-------------------------------------------------|
|-------------------------------------------------|
|--------Nothing is played during-----------------|
|--------------this part--------------------------|
|-------------------------------------------------|
|-------------------------------------------------|


Pre-Chorus
1:22

|-------------------------------------------------|
|-------------------------------------------------|
|---2---5--6----------2---5-----------------------|
|---2---5--6---6------2---5--6--------------------|
|---0---3--4---6------0---3--6--------------------|
|--------------6-------------6--------------------|



Chorus
1:29
                              _
|---------------------|        |
|---------------------|        |
|---------------------|        |
|---6---6-4---7-------|  x3    |
|---4---6-4---7-------|        |
|-------6-4---7-------|        |
                               |>>  x2
|---------------------|        |
|---------------------|        |
|---------------------|        |
|--7-----10-----------|        |
|--7-----10-----------|        |
|--7-----10-----------|        |
                              _|



Bridge
1:57

|-------------------------------------------------|
|-------------------------------------------------|
|--------Nothing is played during-----------------|
|--------------this part--------------------------|
|-------------------------------------------------|
|-------------------------------------------------|


Pre-chorus
2:24

|-------------------------------------------------|
|-------------------------------------------------|
|---2---5--6----------2---5-----------------------|
|---2---5--6---6------2---5--6--------------------|
|---0---3--4---6------0---3--6--------------------|
|--------------6-------------6--------------------|



Chorus
2:31
                              _
|---------------------|        |
|---------------------|        |
|---------------------|        |
|--11---6-4---7-------|  x3    |
|--11---6-4---7-------|        |
|--11---6-4---7-------|        |
                               |>>  x3
|---------------------|        |
|---------------------|        |
|---------------------|        |
|--7-----10-----------|        |
|--7-----10-----------|        |
|--7-----10-----------|        |
                              _|



Ending
3:12

|--------------|-----------------------|
|--------------|-----------------------|
|--------------|------------------6~~--|
|--------------|------------------6~~--|
|--777-7-77-7--|---7777-7-66-6----4~~--|
|--777-7-77-7--|---7777-7-66-6---------|
   ***   **        ****   ** *



Tap to rate this tab
# A B C D E F G H I J K L M N O P Q R S T U V W X Y Z