Song name
# A B C D E F G H I J K L M N O P Q R S T U V W X Y Z

Deathstars - No Light tab

===========================================================

                     No Light
===========================================================

By:  Deathstars
Album: Synthetic Generation

Tabbed by: John Moores
mooresjw@email.uc.edu



Drop C Tuning (CGCFAD)

* = Palm Mute
@ = Pinched harmonic
x = muted




This song is mostly keyboards, so I'm not really sure there
is anything besides the chorus being played...

But as always the times of each section will be provided.




Intro - Keyboards
Verse 1
0:15

Nothing played


Chorus
0:35

Guitar I

|-------------------------------------------------|
|--------11---10h11--7------------11-----10-------|
|--7//12--------------------7//12-----------------|
|-------------------------------------------------|
|-------------------------------------------------|
|-------------------------------------------------|

|---------------------------11-11---11-11--11-----|
|--------11---10h11--7-------------------------8--|
|--7//12------------------12-----11------10-------|
|-------------------------------------------------|
|-------------------------------------------------|
|-------------------------------------------------|


Guitar II

|---------------------------------------------------|
|---------------------------------------------------|
|---------------------------------------------------|
|----5------------1-----------5---------3-----------|
|----5------------1-----------5---------3-----------|
|----5------------1-----------5---------3-----------|

|---------------------------------------------------|
|---------------------------------------------------|
|-----------------------------5---------------------|
|----5------------1-----------5------6---5----------|
|----5------------1-----------3------6---5----------|
|----5------------1------------------6---5----------|


Verse 2
1:06

Nothing Played


Chorus
1:26

Guitar I

|-------------------------------------------------|
|--------11---10h11--7------------11-----10-------|
|--7//12--------------------7//12-----------------|
|-------------------------------------------------|
|-------------------------------------------------|
|-------------------------------------------------|

|---------------------------11-11---11-11--11-----|
|--------11---10h11--7-------------------------8--|
|--7//12------------------12-----12------11-------|
|-------------------------------------------------|
|-------------------------------------------------|
|-------------------------------------------------|


Guitar II

|---------------------------------------------------|
|---------------------------------------------------|
|---------------------------------------------------|
|----5------------1-----------5---------3-----------|
|----5------------1-----------5---------3-----------|
|----5------------1-----------5---------3-----------|

|---------------------------------------------------|
|---------------------------------------------------|
|-----------------------------5---------------------|
|----5------------1-----------5------6---5----------|
|----5------------1-----------3------6---5----------|
|----5------------1------------------6---5----------|


1:46

Guitar I

|------------------------------------------------------|
|--------13---12h13--10--------13--12---h13--15\13-13--| < This string
|--9//14-----------------9//14---------------16\14-14--|  isnt required
|------------------------------------------------------|
|------------------------------------------------------|
|------------------------------------------------------|


Guitar II

|---------------------------------------------------|
|---------------------------------------------------|
|---------------------------------------------------|
|---7---------0-----------7---------5---------------|
|---7---------0-----------7---------5---------------|
|---7---------0-----------7---------5---------------|

|---------------------------------------------------|
|---------------------------------------------------|
|---------------------------------------------------|
|---7---------0-----------3-----6------7------------|
|---7---------0-----------3-----6------7------------|
|---7---------0-----------3-----6------7------------|




2:27

Guitar I

|-------------------------------------------------|
|--------11---10h11--7------------11-----10-------|
|--7//12--------------------7//12-----------------|
|-------------------------------------------------|
|-------------------------------------------------|
|-------------------------------------------------|

|---------------------------11-11---11-11--11-----|
|--------11---10h11--7-------------------------8--|
|--7//12------------------12-----12------11-------|
|-------------------------------------------------|
|-------------------------------------------------|
|-------------------------------------------------|


Guitar II

|---------------------------------------------------|
|---------------------------------------------------|
|---------------------------------------------------|
|----5------------1-----------5---------3-----------|
|----5------------1-----------5---------3-----------|
|----5------------1-----------5---------3-----------|

|---------------------------------------------------|
|---------------------------------------------------|
|-----------------------------5---------------------|
|----5------------1-----------5------6---5----------|
|----5------------1-----------3------6---5----------|
|----5------------1------------------6---5----------|



Chorus
2:46

The only reason this part sounds different
is that it's just the 2 guitars, no bass or
anything else

Guitar I

|-------------------------------------------------|
|--------11---10h11--7------------11-----10-------|
|--7//12--------------------7//12-----------------|
|-------------------------------------------------|
|-------------------------------------------------|
|-------------------------------------------------|

|---------------------------11-11---11-11--11-----|
|--------11---10h11--7-------------------------8--|
|--7//12------------------12-----12------11-------|
|-------------------------------------------------|
|-------------------------------------------------|
|-------------------------------------------------|


Guitar II

|---------------------------------------------------|
|---------------------------------------------------|
|---------------------------------------------------|
|----5------------1-----------5---------3-----------|
|----5------------1-----------5---------3-----------|
|----5------------1-----------5---------3-----------|

|---------------------------------------------------|
|---------------------------------------------------|
|-----------------------------5---------------------|
|----5------------1-----------5------6---5----------|
|----5------------1-----------3------6---5----------|
|----5------------1------------------6---5----------|




Tap to rate this tab
# A B C D E F G H I J K L M N O P Q R S T U V W X Y Z