Song name
# A B C D E F G H I J K L M N O P Q R S T U V W X Y Z

Deathstars - Via The End tab

===========================================================

                   Via the End

===========================================================

By:  Deathstars
Album: Night Electric Night

Tabbed by: John Moores
mooresjw@email.uc.edu



Drop C Tuning (CGCFAD)

* = Palm Mute
@ = Pinched harmonic
x = muted

Main Riff
0:55

|---------------------------|
|---------------------------|
|---------------------------|
|--0-----7----6----------0--|
|--0-----7----6----1--3--0--|
|--0-----7----6----1--3--0--|
                   *  *

|---------------------------|
|---------------------------|
|---------------------------|
|--0-----7----8----11-------|
|--0-----7----8----11-------|
|--0-----7----8----11-------|



Verse
1:07

|---------------------------|
|---------------------------|
|-----Nothing played--------|
|----------here-------------|
|---------------------------|
|---------------------------|

1:30
|----------------------------|
|----------------------------|
|----------------------------|
|--8-------8----5-------5----|
|--8-------8----5-------5----|
|--8---8-8-8----5---5-5-5----|
       * *          * *
                                x2
|----------------------------|
|----------------------------|
|----------------------------|
|--0-------0----5---------7--|
|--0-------0----3---3-3---7--|
|--0---0-0-0--------------7--|
       * *          * *


Main Riff
2:05

Pick scratch leading into riff

|---------------------------|
|---------------------------|
|---------------------------|
|--0-----7----6----------0--|
|--0-----7----6----1--3--0--|
|--0-----7----6----1--3--0--|
                   *  *
                               x2
|---------------------------|
|---------------------------|
|---------------------------|
|--0-----7----8----11-------|
|--0-----7----8----11-------|
|--0-----7----8----11-------|


Verse
2:29

|---------------------------|
|---------------------------|
|-----Nothing played--------|
|----------here-------------|
|---------------------------|
|---------------------------|


Lead in
2:50
|-------------------|
|-------------------|
|-------------------|
|--5--5-------------|
|--5--5--5--7-------|
|--5--5--5--7-------|
         *  *  

|----------------------------|
|----------------------------|
|----------------------------|
|--8-------8----5-------5----|
|--8-------8----5-------5----|
|--8---8-8-8----5---5-5-5----|
       * *          * *
                                x4
|----------------------------|
|----------------------------|
|----------------------------|
|--0-------0----5---------7--|
|--0-------0----3---3-3---7--|
|--0---0-0-0--------------7--|
       * *          * *
Tap to rate this tab
# A B C D E F G H I J K L M N O P Q R S T U V W X Y Z