Song name
# A B C D E F G H I J K L M N O P Q R S T U V W X Y Z

Deathstars - Arclight tab

===========================================================

                   Arclight

===========================================================

By:  Deathstars
Album: Night Electric Night

Tabbed by: John Moores
mooresjw@email.uc.edu

Drop C Tuning (CGCFAD)

* = Palm Mute
@ = Pinched harmonic
x = muted

Intro/Main Riff
0:24

|------------------------------|
|------------------------------|
|------------------------------|
|-------7/8\7------7-8-7\5-----|  x4
|--0-0--5/6\5--0-0-5-6-5\3-----|
|--0-0---------0-0-0-----------|
   * *         * *

Verse
0:34
|------------------------------------------------------|
|------------------------------------------------------|
|------Nothing is played-------------------------------|
|-------------------during this part-------------------|
|------------------------------------------------------|
|------------------------------------------------------|

Pre-chorus
0:55

|------------------------------|
|------------------------------|
|------------------------------|
|-------7/8\7------7-8-7\5-----|  x4
|--0-0--5/6\5--0-0-5-6-5\3-----|
|--0-0---------0-0-0-----------|
   * *         * *

Chorus
1:05

|------------------------------------------------------------|
|------------------------------------------------------------|
|------------------------------------------------------------|
|---5----8-------3--/8--7--5--3---5---8-------3---5--5---5-3-|
|---5----8-7-5---3--/6--5--3--1---5---8-7-5---3---3--3---3-1-|
|---5----8-7-5---3----------------5---8-7-5---3--------------|

|------------------------------------------------------------|
|------------------------------------------------------------|
|------------------------------------------------------------|
|---5----8-------3--/8--7--5--3---5---8-------3---5--5---5-7-|
|---5----8-7-5---3--/6--5--3--1---5---8-7-5---3---3--3---3-5-|
|---5----8-7-5---3----------------5---8-7-5---3--------------|

Post-Chorus
1:27

|------------------------------|     |--------------------|
|------------------------------|     |--------------------|
|------------------------------|     |--------------------|
|-------7/8\7------7-8-7\5-----| x3  |--7-7-----7-7-------|
|--0-0--5/6\5--0-0-5-6-5\3-----|     |--5-5-----5-5-------|
|--0-0---------0-0-0-----------|     |--------------------|
   * *         * *


Verse
1:37
|------------------------------------------------------|
|------------------------------------------------------|
|------Nothing is played-------------------------------|
|-------------------during this part-------------------|
|------------------------------------------------------|
|------------------------------------------------------|


Pre-chorus
1:58

|------------------------------|
|------------------------------|
|------------------------------|
|-------7/8\7------7-8-7\5-----|  x4
|--0-0--5/6\5--0-0-5-6-5\3-----|
|--0-0---------0-0-0-----------|
   * *         * *

Chorus
2:08

|------------------------------------------------------------|
|------------------------------------------------------------|
|------------------------------------------------------------|
|---5----8-------3--/8--7--5--3---5---8-------3---5--5---5-3-|
|---5----8-7-5---3--/6--5--3--1---5---8-7-5---3---3--3---3-1-|
|---5----8-7-5---3----------------5---8-7-5---3--------------|

|------------------------------------------------------------|
|------------------------------------------------------------|
|------------------------------------------------------------|
|---5----8-------3--/8--7--5--3---5---8-------3---5--5---5-7-|
|---5----8-7-5---3--/6--5--3--1---5---8-7-5---3---3--3---3-5-|
|---5----8-7-5---3----------------5---8-7-5---3--------------|


Bridge
2:29

|---------------------------------------------------|
|---------------------------------------------------|
|---------------------------------------------------|
|---5---5-5---8-------8-----5------5----3------3----|  x2
|---3---3-3---8---8---8-----5--5---5----3--3---3----|
|-------------8---8---8-----5--5---5----3--3---3----|


2:45

|------------------------------|
|------------------------------|
|------------------------------|
|-------7/8\7------7-8-7\5-----|  x2
|--0-0--5/6\5--0-0-5-6-5\3-----|
|--0-0---------0-0-0-----------|
   * *         * *

Chorus
3:11

|------------------------------------------------------------|
|------------------------------------------------------------|
|------------------------------------------------------------|
|---5----8-------3--/8--7--5--3---5---8-------3---5--5---5-3-|
|---5----8-7-5---3--/6--5--3--1---5---8-7-5---3---3--3---3-1-|
|---5----8-7-5---3----------------5---8-7-5---3--------------|
                                                               x2
|------------------------------------------------------------|
|------------------------------------------------------------|
|------------------------------------------------------------|
|---5----8-------3--/8--7--5--3---5---8-------3---5--5---5-7-|
|---5----8-7-5---3--/6--5--3--1---5---8-7-5---3---3--3---3-5-|
|---5----8-7-5---3----------------5---8-7-5---3--------------|


3:53
|------------------------------------------------------------|
|------------------------------------------------------------|
|------------------------------------------------------------|
|---5--7-8-------3--/8--7--5--3---5-7-8-------3---5--5---5-3-|  x2
|---5--7-8-7-5---3--/6--5--3--1---5-7-8-7-5---3---3--3---3-1-|
|---5--7-8-7-5---3----------------5-7-8-7-5---3--------------|
Tap to rate this tab
 
# A B C D E F G H I J K L M N O P Q R S T U V W X Y Z