Song name
# A B C D E F G H I J K L M N O P Q R S T U V W X Y Z

Deathstars - Venus In Arms tab

===========================================================

                   Venus in Arms
===========================================================

By:  Deathstars
Album: Night Electric Night

Tabbed by: John Moores
mooresjw@email.uc.edu



Drop C Tuning (CGCFAD)

* = Palm Mute
@ = Pinched harmonic
x = muted

Intro/Main Riff

0:20
Pick scratch

0:22

|-------------------------------------------------|
|-------------------------------------------------|
|-------------------------------------------------|
|---3---5-6--8----8-8-----------3---5-6---8---8---|
|---3---5-6--8----8-8---6-5--3--3---5-6---6---8---|
|---3---5-6--8----8-8---6-5--3--3---5-6-------8---|



Verse
0:45

|------------------------------------------|
|------------------------------------------|
|----Nothing is played---------------------|
|------------during this part--------------|
|------------------------------------------|
|------------------------------------------|


1:00
|------------------------------|
|------------------------------|
|--------------------3---------|
|---3----6-----1-----3---------| x2
|---3----6-----1-----1---------|
|---3----6-----1---------------|


Pre-chorus
1:18

|-----------------------|
|-----------------------|
|-----------------------|
|--8---6---5---3--------|
|--6---4---3---1---6----|
|------------------6----|

Chorus
1:22

|-------------------------------------------------|
|-------------------------------------------------|
|-------------------------------------------------|
|---3---5-6--8----8-8-----------3---5-6---8---8---|
|---3---5-6--8----8-8---6-5--3--3---5-6---6---8---|
|---3---5-6--8----8-8---6-5--3--3---5-6-------8---|


Verse
1:37

|------------------------------------------|
|------------------------------------------|
|----Nothing is played---------------------|
|------------during this part--------------|
|------------------------------------------|
|------------------------------------------|


1:52
|------------------------------|
|------------------------------|
|--------------------3---------|
|---3----6-----1-----3---------| x2
|---3----6-----1-----1---------|
|---3----6-----1---------------|


Pre-chorus
2:11

|-----------------------|
|-----------------------|
|-----------------------|
|--8---6---5---3--------|
|--6---4---3---1---6----|
|------------------6----|

Chorus
2:15

|-------------------------------------------------|
|-------------------------------------------------|
|-------------------------------------------------|
|---3---5-6--8----8-8-----------3---5-6---8---8---|  x2
|---3---5-6--8----8-8---6-5--3--3---5-6---6---8---|
|---3---5-6--8----8-8---6-5--3--3---5-6-------8---|



Bridge
2:52

|----------------------------------------------|-----|
|----------------------------------------------|-----|
|-----------------------------------------5----|-----|
|--6--6-4-3-3/5--3-5-6---6-5-3--3--5------5----|--3--|
|--4--4-3-1-1/3--1-3-4---4-3-1--1--5----5-3----|--3--|
|----------------------------------5----5------|--3--|
      * *        * *     * * 


Chorus
3:22

|-------------------------------------------------|
|-------------------------------------------------|
|-------------------------------------------------|
|---3---5-6--8----8-8-----------3---5-6---8---8---|  x2
|---3---5-6--8----8-8---6-5--3--3---5-6---6---8---|
|---3---5-6--8----8-8---6-5--3--3---5-6-------8---|


Ending
3:52

|---------------------------|
|---------------------------|
|---------------------------|
|--6---6-5-3---3---3--------|
|--4---4-3-1---1---3--------|
|------------------3--------|
       * *


Please rate and comment (especially if you rate it, so I know how to improve it)! Thanks!

Tap to rate this tab
 
# A B C D E F G H I J K L M N O P Q R S T U V W X Y Z