Song name
# A B C D E F G H I J K L M N O P Q R S T U V W X Y Z

Deathstars - Night Electric Night tab

___________________________________________________________________________
===========================================================================

                            Night Electric Night
                                 The Album


                              The Deathstars

===========================================================================
===========================================================================



===========================================================================

Track 1                       Chertograd

===========================================================================

By:  Deathstars
Album: Night Electric Night

Tabbed by: John Moores
mooresjw@email.uc.edu



Drop C Tuning (CGCFAD)

* = Palm Mute
@ = Pinched harmonic
x = muted

Intro/Main Riff
0:23

|---------------------------------------------------------|
|---------------------------------------------------------|
|---------------------------------------------------3-----|
|-2-0-2---2-0-2---0-2--2-3--0--2-0-2---2-0-2---0-2--3-2-0-|  x2
|-2-0-2---2-0-2---0-2--2-3--0--2-0-2---2-0-2---0-2--1-2-0-|
|-2-0-2---2-0-2---0-2--2-3--0--2-0-2---2-0-2---0-2----2-0-|


0:34
|-------------------------------------------------------|
|-------------------------------------------------------|
|-------------------------------------------------------|
|-2-0-2---2-0-2--0-2--0-2---9-7-9---9-7-9--7-9--7-9-----|
|-2-0-2---2-0-2--0-2--0-2---9-7-9---9-7-9--7-9--7-9-----|
|-2-0-2---2-0-2--0-2--0-2---9-7-9---9-7-9--7-9--7-9-----|
  * * *   * * *  * *  * *   * * *   * * *  * *  * *
            
|-------------------------------------------------------|
|-------------------------------------------------------|
|-------------------------------------------------------|
|-5-7-7---7-5-7--5-7--5-7-----4-2-4---4-2--22--2-22-2---|
|-5-7-7---7-5-7--5-7--5-7-----4-2-4---4-2--22--2-22-2---|
|-5-7-7---7-5-7--5-7--5-7-----4-2-4---4-2--22--2-22-2---|
  * * *   * * *  * *  * *     * * *   * *  **    **

|-------------------------------------------------------|
|-------------------------------------------------------|
|-------------------------------------------------------|
|-2-0-2---2-0-2--0-2--0-2---9-7-9---9-7-9--7-9--7-9-----|
|-2-0-2---2-0-2--0-2--0-2---9-7-9---9-7-9--7-9--7-9-----|
|-2-0-2---2-0-2--0-2--0-2---9-7-9---9-7-9--7-9--7-9-----|
  * * *   * * *  * *  * *   * * *   * * *  * *  * *

|-------------------------------------------------------|
|-------------------------------------------------------|
|-------------------------------------------------------|
|-5-7-7---7-5-7--5-7--5-7-----9-7-9---9-12--14--14--14--|
|-5-7-7---7-5-7--5-7--5-7-----9-7-9---9-12--14--14--14--|
|-5-7-7---7-5-7--5-7--5-7-----9-7-9---9-12--14--14--14--|
  * * *   * * *  * *  * *     * * *   * *       *

Verse
1:00

1:05
|---------------------------------------------------------|
|---------------------------------------------------------|
|---------------------------------------------------3-----|
|-2-0-2---2-0-2---0-2--2-3--0--2-0-2---2-0-2---0-2--3-2-0-|
|-2-0-2---2-0-2---0-2--2-3--0--2-0-2---2-0-2---0-2--1-2-0-|
|-2-0-2---2-0-2---0-2--2-3--0--2-0-2---2-0-2---0-2----2-0-|


1:17
|---------------------------------------------------------|
|---------------------------------------------------------|
|---------------------------------------------------3-----|
|-2-0-2---2-0-2---0-2--2-3--0--2-0-2---2-0-2---0-2--3-2-0-|
|-2-0-2---2-0-2---0-2--2-3--0--2-0-2---2-0-2---0-2--1-2-0-|
|-2-0-2---2-0-2---0-2--2-3--0--2-0-2---2-0-2---0-2----2-0-|


Pre-chorus
1:22

|--------------------------------------------------|
|--------------------------------------------------|
|--5~-------------5~-----4~------------------------|
|--5~-----2~------5~-----4~------------------------|
|--3~-----2~------3~-----2~------------------------|
|---------2~---------------------------------------|


Chorus
1:33

|-------------------------------------------------------|
|-------------------------------------------------------|
|-------------------------------------------------------|
|-2-0-2---2-0-2--0-2--0-2---9-7-9---9-7-9--7-9--7-9-----|
|-2-0-2---2-0-2--0-2--0-2---9-7-9---9-7-9--7-9--7-9-----|
|-2-0-2---2-0-2--0-2--0-2---9-7-9---9-7-9--7-9--7-9-----|
  * * *   * * *  * *  * *   * * *   * * *  * *  * *
            
|-------------------------------------------------------|
|-------------------------------------------------------|
|-------------------------------------------------------|
|-5-7-7---7-5-7--5-7--5-7-----4-2-4---4-2--22--2-22-2---|
|-5-7-7---7-5-7--5-7--5-7-----4-2-4---4-2--22--2-22-2---|
|-5-7-7---7-5-7--5-7--5-7-----4-2-4---4-2--22--2-22-2---|
  * * *   * * *  * *  * *     * * *   * *  **    **

|-------------------------------------------------------|
|-------------------------------------------------------|
|-------------------------------------------------------|
|-2-0-2---2-0-2--0-2--0-2---9-7-9---9-7-9--7-9--7-9-----|
|-2-0-2---2-0-2--0-2--0-2---9-7-9---9-7-9--7-9--7-9-----|
|-2-0-2---2-0-2--0-2--0-2---9-7-9---9-7-9--7-9--7-9-----|
  * * *   * * *  * *  * *   * * *   * * *  * *  * *

|-------------------------------------------------------|
|-------------------------------------------------------|
|-------------------------------------------------------|
|-5-7-7---7-5-7--5-7--5-7-----9-7-9---9-12--14--14--14--|
|-5-7-7---7-5-7--5-7--5-7-----9-7-9---9-12--14--14--14--|
|-5-7-7---7-5-7--5-7--5-7-----9-7-9---9-12--14--14--14--|
  * * *   * * *  * *  * *     * * *   * *       *


Intro Riff
1:56

|---------------------------------------------------------|
|---------------------------------------------------------|
|---------------------------------------------------3-----|
|-2-0-2---2-0-2---0-2--2-3--0--2-0-2---2-0-2---0-2--3-2-0-|
|-2-0-2---2-0-2---0-2--2-3--0--2-0-2---2-0-2---0-2--1-2-0-|
|-2-0-2---2-0-2---0-2--2-3--0--2-0-2---2-0-2---0-2----2-0-|


Verse 2
2:02


2:07
|---------------------------------------------------------|
|---------------------------------------------------------|
|---------------------------------------------------3-----|
|-2-0-2---2-0-2---0-2--2-3--0--2-0-2---2-0-2---0-2--3-2-0-|
|-2-0-2---2-0-2---0-2--2-3--0--2-0-2---2-0-2---0-2--1-2-0-|
|-2-0-2---2-0-2---0-2--2-3--0--2-0-2---2-0-2---0-2----2-0-|

2:18
|---------------------------------------------------------|
|---------------------------------------------------------|
|---------------------------------------------------------|
|-2-0-2---2-0-2---0-2--2-3--0--2-0-2---2-0---2~---0~------|
|-2-0-2---2-0-2---0-2--2-3--0--2-0-2---2-0---2~---0~------|
|-2-0-2---2-0-2---0-2--2-3--0--2-0-2---2-0---2~---0~------|


Pre-chorus
2:24

|--------------------------------------------------|
|--------------------------------------------------|
|--5~-------------5~-----4~------------------------|
|--5~-----2~------5~-----4~------------------------|
|--3~-----2~------3~-----2~------------------------|
|---------2~---------------------------------------|


Chorus
2:35

|-------------------------------------------------------|
|-------------------------------------------------------|
|-------------------------------------------------------|
|-2-0-2---2-0-2--0-2--0-2---9-7-9---9-7-9--7-9--7-9-----|
|-2-0-2---2-0-2--0-2--0-2---9-7-9---9-7-9--7-9--7-9-----|
|-2-0-2---2-0-2--0-2--0-2---9-7-9---9-7-9--7-9--7-9-----|
  * * *   * * *  * *  * *   * * *   * * *  * *  * *
            
|-------------------------------------------------------|
|-------------------------------------------------------|
|-------------------------------------------------------|
|-5-7-7---7-5-7--5-7--5-7-----4-2-4---4-2--22--2-22-2---|
|-5-7-7---7-5-7--5-7--5-7-----4-2-4---4-2--22--2-22-2---|
|-5-7-7---7-5-7--5-7--5-7-----4-2-4---4-2--22--2-22-2---|
  * * *   * * *  * *  * *     * * *   * *  **    **

|-------------------------------------------------------|
|-------------------------------------------------------|
|-------------------------------------------------------|
|-2-0-2---2-0-2--0-2--0-2---9-7-9---9-7-9--7-9--7-9-----|
|-2-0-2---2-0-2--0-2--0-2---9-7-9---9-7-9--7-9--7-9-----|
|-2-0-2---2-0-2--0-2--0-2---9-7-9---9-7-9--7-9--7-9-----|
  * * *   * * *  * *  * *   * * *   * * *  * *  * *

|-------------------------------------------------------|
|-------------------------------------------------------|
|-------------------------------------------------------|
|-5-7-7---7-5-7--5-7--5-7-----9-7-9---9-12--14--14--14--|
|-5-7-7---7-5-7--5-7--5-7-----9-7-9---9-12--14--14--14--|
|-5-7-7---7-5-7--5-7--5-7-----9-7-9---9-12--14--14--14--|
  * * *   * * *  * *  * *     * * *   * *       *

Bridge
2:58

Keys only

3:02
Pick scratch followed by
3:04
|--------------------------------------------------|
|--------------------------------------------------|
|--9---------7--------5-------4~-------------------|
|--9--11-12--7--9-11--5--7-9--4~-------------------|
|--7--9--10--5--7-9---3--5-7--2~-------------------|
|--------------------------------------------------|
      *  *      * *      * *

|--------------------------------------------------|
|--------------------------------------------------|
|--9----------------5------4~----------------------|
|--9--11-12--0--4---5--2---4~----------------------|
|--7--9--10--0--2---3--0---2~----------------------|
|------------0-------------------------------------|
      *  *


Pre-chorus
3:32

Keys only




Chorus
3:43

|-------------------------------------------------------|
|-------------------------------------------------------|
|-------------------------------------------------------|
|-2-0-2---2-0-2--0-2--0-2---9-7-9---9-7-9--7-9--7-9-----|
|-2-0-2---2-0-2--0-2--0-2---9-7-9---9-7-9--7-9--7-9-----|
|-2-0-2---2-0-2--0-2--0-2---9-7-9---9-7-9--7-9--7-9-----|
  * * *   * * *  * *  * *   * * *   * * *  * *  * *
            
|-------------------------------------------------------|
|-------------------------------------------------------|
|-------------------------------------------------------|
|-5-7-7---7-5-7--5-7--5-7-----4-2-4---4-2--22--2-22-2---|
|-5-7-7---7-5-7--5-7--5-7-----4-2-4---4-2--22--2-22-2---|
|-5-7-7---7-5-7--5-7--5-7-----4-2-4---4-2--22--2-22-2---|
  * * *   * * *  * *  * *     * * *   * *  **    **

|-------------------------------------------------------|
|-------------------------------------------------------|
|-------------------------------------------------------|
|-2-0-2---2-0-2--0-2--0-2---9-7-9---9-7-9--7-9--7-9-----|
|-2-0-2---2-0-2--0-2--0-2---9-7-9---9-7-9--7-9--7-9-----|
|-2-0-2---2-0-2--0-2--0-2---9-7-9---9-7-9--7-9--7-9-----|
  * * *   * * *  * *  * *   * * *   * * *  * *  * *

|-------------------------------------------------------|
|-------------------------------------------------------|
|-------------------------------------------------------|
|-5-7-7---7-5-7--5-7--5-7-----9-7-9---9-12--14--14--14--|
|-5-7-7---7-5-7--5-7--5-7-----9-7-9---9-12--14--14--14--|
|-5-7-7---7-5-7--5-7--5-7-----9-7-9---9-12--14--14--14--|
  * * *   * * *  * *  * *     * * *   * *       *

Repeat Chorus 2 more times



Intro Riff
4:29

|---------------------------------------------------------|
|---------------------------------------------------------|
|---------------------------------------------------3-----|
|-2-0-2---2-0-2---0-2--2-3--0--2-0-2---2-0-2---0-2--3-2-0-|  x2
|-2-0-2---2-0-2---0-2--2-3--0--2-0-2---2-0-2---0-2--1-2-0-|
|-2-0-2---2-0-2---0-2--2-3--0--2-0-2---2-0-2---0-2----2-0-|



It also sounds like there might be an octave of this played over
the normal riff.  It would look like this:

|---------------------------------------------------------|
|--------------------------------------------------11-----|
|-9-7-9---9-7-9---7-9--9-10--7--9-7-9---9-7-9--7-9-10-9-7-|
|-9-7-9---9-7-9---7-9--9-10--7--9-7-9---9-7-9--7-9----9-7-|  x2
|---------------------------------------------------------|
|---------------------------------------------------------|




===========================================================================

Track 2                   Night Electric Night

===========================================================================

By:  Deathstars
Album: Night Electric Night

Tabbed by: John Moores
mooresjw@email.uc.edu 

Tuning: Drop C (CGCFAD)

Legend: * = Palm Mute
        ~ = Let ring


Intro

0:26
|--------------------------------------------------------|
|--------------------------------------------------------|
|--------------------------------------------------------|
|---------------6-------6---------3---1--0---------------|   x4
|---------------6-------6---------3---1--0---------------|
|----0--0-0-0---6--0-0--6--0-0----3---1--0---------------|
     *  * * *      * *     * *    

|--------------------------------------------------------|
|------------6~------------5-------------4---------------|
|------------5~------------4-------------3---------------|
|----3~~-----3~-------2----2------1------1---------------|
|----3~~--------------2-----------1----------------------|
|----3~~--------------2-----------1----------------------|



|--------------------------------------------------------|
|--------------------------------------------------------|
|--------------------------------------------------------|
|---------------6-------6---------3---1--0---------------|   x2
|---------------6-------6---------3---1--0---------------|
|----0--0-0-0---6--0-0--6--0-0----3---1--0---------------|
     *  * * *      * *     * *



Verse 1

0:50
|--------------------------------------------------------|
|--------------------------------------------------------|
|--------------------------------------------------------|
|--------------------------------------------------------|
|--------------------------------------------------------|
|--------------------------------------------------------|

1:14
|--------------------------------------------------------|
|--------------------------------------------------------|
|--------------------------------------------------------|
|---------------6-------6---------3---1--0---------------|   x4
|---------------6-------6---------3---1--0---------------|
|----0--0-0-0---6--0-0--6--0-0----3---1--0---------------|
     *  * * *      * *     * *


Verse 2

1:25
|--------------------------------------------------------|
|--------------------------------------------------------|
|--------------------------------------------------------|
|--------------------------------------------------------|
|--------------------------------------------------------|
|--------------------------------------------------------|


1:49
|--------------------------------------------------------|
|------------6~------------5~-----------4~---------------|
|------------5~------------4~-----------3~---------------|
|----3~~-----3~------------2~-----1-----1~---------------|
|----3~~--------------2-----------1----------------------|
|----3~~--------------2-----------1----------------------|

|--------------------------------------------------------|
|--------------------------------------------------------|
|--------------------------------------------------------|
|---------------6-------6---------3---1--0---------------|   x2
|---------------6-------6---------3---1--0---------------|
|----0--0-0-0---6--0-0--6--0-0----3---1--0---------------|
     *  * * *      * *     * *

|--------------------------------------------------------|
|------------6-------------5-------------4---------------|
|------------5-------------4-------------3---------------|
|----3~~-----3--------2----2------1------1-------7\\-----|
|----3~~--------------2-----------1--------------5\\-----|
|----3~~--------------2-----------1--------------0-------|



Chorus

2:10
|--------------------------------------------------------|
|--------------------------------------------------------|
|--------------------------------------------------------|
|---7-------7--------7-----5----3----3--5-------7--------|
|---5--55---5--55----5-----3----3----3--5-------7--------|
|---0-------0--------0-----3-33-3-33-3--5---7-7-7--------|
       **      **            **   **        * *   


2:22
|--------------------------------------------------------|
|--------------------------------------------------------|
|--------------------------------------------------------|
|---------------6-------6---------3---1--0---------------|   x4
|---------------6-------6---------3---1--0---------------|
|----0--0-0-0---6--0-0--6--0-0----3---1--0---------------|
     *  * * *      * *     * *



Verse 3

2:34
|--------------------------------------------------------|
|--------------------------------------------------------|
|--------------------------------------------------------|
|--------------------------------------------------------|
|--------------------------------------------------------|
|--------------------------------------------------------|


2:58
|--------------------------------------------------------|
|------------6-------------5-------------4---------------|
|------------5-------------4-------------3---------------|
|----3~~-----3--------2----2------1------1---------------|
|----3~~--------------2-----------1----------------------|
|----3~~--------------2-----------1----------------------|



3:03
|--------------------------------------------------------|
|--------------------------------------------------------|
|--------------------------------------------------------|
|---------------6-------6---------3---1--0---------------|   x2
|---------------6-------6---------3---1--0---------------|
|----0--0-0-0---6--0-0--6--0-0----3---1--0---------------|
     *  * * *      * *     * *

|--------------------------------------------------------|
|------------6-------------5-------------4---------------|
|------------5-------------4-------------3---------------|
|----3~~-----3--------2----2------1------1------7\\------|
|----3~~--------------2-----------1-------------5\\------|
|----3~~--------------2-----------1-------------0--------|



Chorus

3:18
|--------------------------------------------------------|
|--------------------------------------------------------|
|--------------------------------------------------------| x2
|---7-------7--------7-----5----5----5--5-------7--------|
|---5--55---5--55----5-----3----3----3--5-------7--------|
|---0-------0--------0-----3-33-3-33-3--5---7-7-7--------|
       **      **            **   **        * *   


3:42
|--------------------------------------------------------|
|--------------------------------------------------------|
|--------------------------------------------------------|
|---------------6-------6---------3---1--0---------------|   x3
|---------------6-------6---------3---1--0---------------|
|----0--0-0-0---6--0-0--6--0-0----3---1--0---------------|
     *  * * *      * *     * *


3:50
|--------------------------------------------------------|
|--------------------------------------------------------|
|--------------------------------------------------------|
|---------------6-------6---------12-12--10--12--12\\----|
|---------------6-------6---------12-12--10--12--12\\----|
|----0--0-0-0---6--0-0--6--0-0----12-12--10--12--12\\----|
     *  * * *      * *     * *



===========================================================================

Track 3                    Death Dies Hard

===========================================================================

By:  Deathstars
Album: Night Electric Night

Tabbed by: John Moores
mooresjw@email.uc.edu


Drop C Tuning (CGCFAD)

* = Palm Mute
@ = Pinched harmonic
x = muted

Intro/Main Riff
0:05

|---------------------------|
|---------------------------|
|---------------------------|
|---9------5-------2--------| 
|---9------5-------2--------|
|---9------5-------2--------|

                               x2
|---------------------------|
|---------------------------|
|---------------------------|
|---9------5-------7--------| 
|---9------5-------7--------|
|---9------5-------7--------|



Verse 1
0:20

Nothing is technically played, but this is the pattern of
the keyboard

|----------------------------|
|----------------------------|
|----------------------------|
|------------------2---------|
|---2----5--4----------4-----|
|---------------5------------|


Pre-chorus
0:48

|---------------------------------------|
|---------------------------------------|
|---------------2---4-------------------|
|---5-------2---2---4--5---2--4---------|
|---5--4----2---0---2--5---2--444-------|
|---5--4----2----------5---2--444-------|

Chorus/Main Riff
1:02

|---------------------------|
|---------------------------|
|---------------------------|
|---9------5-------2--------| 
|---9------5-------2--------|
|---9------5-------2--------|

                               x2
|---------------------------|
|---------------------------|
|---------------------------|
|---9------5-------7--------| 
|---9------5-------7--------|
|---9------5-------7--------|


Verse 2
1:17

Again for the keys
|----------------------------|
|----------------------------|
|----------------------------|
|------------------2---------|
|---2----5--4----------4-----|
|---------------5------------|


Pre-chorus
1:44

|---------------------------------------|
|---------------------------------------|
|---------------2---4-------------------|
|---5-------2---2---4--5---2--4---------|
|---5--4----2---0---2--5---2--444-------|
|---5--4----2----------5---2--444-------|


Chorus/Main Riff
1:59

|---------------------------|
|---------------------------|
|---------------------------|
|---9------5-------2--------| 
|---9------5-------2--------|
|---9------5-------2--------|

                               x2
|---------------------------|
|---------------------------|
|---------------------------|
|---9------5-------7--------| 
|---9------5-------7--------|
|---9------5-------7--------|


Bridge
2:13

|------------------------------------|
|------------------------------------|
|------------------------------------|
|---9~~-----------9~~----------------|
|---9~~-----------9~~----------------|
|---9~~-----------9~~----------------|


Chorus/Main Riff
2:42

|---------------------------|
|---------------------------|
|---------------------------|
|---9------5-------7--------| x2
|---9------5-------7--------|
|---9------5-------7--------|

|------------------------------------------------|
|------------------------------------------------|
|------------------------------------------------|
|---9------5-------2-----9------5-------7--------|
|---9------5-------2-----9------5-------7--------|
|---9------5-------2-----9------5-------7--------|





===========================================================================

Track 4                   Mark of the Gun

===========================================================================

By:  Deathstars
Album: Night Electric Night

Tabbed by: John Moores
mooresjw@email.uc.edu

Drop C Tuning (CGCFAD)

* = Palm Mute
@ = Pinched harmonic
x = muted

Intro/Main Riff
0:17

|-----------------------|
|-----------------------|
|-----------------------|
|----5-------3----------|
|----5-------3----------|
|----5-------3----------|

0:19
|---------------------------------|
|---------------------------------|
|---------------------------------|
|---7----7--9/10\9--7--10----7----|
|---7-77-7--7/8\\7--5--10----7----|
|---7-77-7-------------10----7----|

|---------------------------------|
|---------------------------------|
|---------------------------------|
|---7----7--10--7--5555--5/7------|
|---7-77-7--8---5--5555--5/7------|
|---7-77-7---------5555--5/7------|
                   ****                         

|---------------------------------|
|---------------------------------|
|---------------------------------|
|---7----7--9/10\9--7--10----7----|
|---7-77-7--7/8\\7--5--10----7----|
|---7-77-7-------------10----7----|

|---------------------------------|
|---------------------------------|
|---------------------------------|
|---7----7----9/10\9---3----------|
|---7-77-7----9/10\9---3----------|
|---7-77-7----9/10\9---3----------|


Verse 1
0:35

Nothing is played here

0:50
|-------------------------------------|
|-------------------------------------|
|-------------------------------------|
|-------------------------------------|  x3
|---7-7---7----7-7--7----7-10-9-7-----|
|---7-7---7----7-7--7----7-10-9-7-----|
    * *   *    * *  *    * *  * *

|---------------|
|---------------|
|---------------|
|---------------|  
|---7-7---7-----|
|---7-7---7-----|
    * *   *    

1:04
|-----------------------|
|-----------------------|
|-----------------------|
|----5-------3----------|
|----5-------3----------|
|----5-------3----------|


Chorus
1:06

|---------------------------------|
|---------------------------------|
|---------------------------------|
|---7----7--9/10\9--7--10----7----|
|---7-77-7--7/8\\7--5--10----7----|
|---7-77-7-------------10----7----|

|---------------------------------|
|---------------------------------|
|---------------------------------|
|---7----7--10--7--5555--5/7------|
|---7-77-7--8---5--5555--5/7------|
|---7-77-7---------5555--5/7------|
                   ****                        

|---------------------------------|
|---------------------------------|
|---------------------------------|
|---7----7--9/10\9--7--10----7----|
|---7-77-7--7/8\\7--5--10----7----|
|---7-77-7-------------10----7----|

|---------------------------------|
|---------------------------------|
|---------------------------------|
|---7----7----9/10\9---3----------|
|---7-77-7----9/10\9---3----------|
|---7-77-7----9/10\9---3----------|


Verse 2
1:21

Nothing is played here

1:36
|-------------------------------------|
|-------------------------------------|
|-------------------------------------|
|-------------------------------------|  x3
|---7-7---7----7-7--7----7-10-9-7-----|
|---7-7---7----7-7--7----7-10-9-7-----|
    * *   *    * *  *    * *  * *

|---------------|
|---------------|
|---------------|
|---------------|  
|---7-7---7-----|
|---7-7---7-----|
    * *   *    

1:50
|-----------------------|
|-----------------------|
|-----------------------|
|----5-------3----------|
|----5-------3----------|
|----5-------3----------|



Chorus
1:53

|---------------------------------|
|---------------------------------|
|---------------------------------|
|---7----7--9/10\9--7--10----7----|
|---7-77-7--7/8\\7--5--10----7----|
|---7-77-7-------------10----7----|

|---------------------------------|
|---------------------------------|
|---------------------------------|
|---7----7--10--7--5555--5/7------|
|---7-77-7--8---5--5555--5/7------|
|---7-77-7---------5555--5/7------|
                   ****                       

|---------------------------------|
|---------------------------------|
|---------------------------------|
|---7----7--9/10\9--7--10----7----|
|---7-77-7--7/8\\7--5--10----7----|
|---7-77-7-------------10----7----|

|---------------------------------|
|---------------------------------|
|---------------------------------|
|---7----7----9/10\9---3----------|
|---7-77-7----9/10\9---3----------|
|---7-77-7----9/10\9---3----------|


Bridge
2:08

|-------------------------------------------|
|-------------------------------------------|
|-------------------------------------------|
|---3--------2-------7---------5------------|
|---3---5-3--2----6--7--10-9---5--2---------|
|---3---5-3--2----6--7--10-9---5--2---------|

|-------------------------------------------|
|-------------------------------------------|
|-------------------------------------------|
|---3--------2-------7-7--------------------|
|---3---5-3--2----6--7-7---9-9---10-10--14--|
|---3---5-3--2----6--7-7---9-9---10-10--14--|

|-------------------------------------------|
|-------------------------------------------|
|-------------------------------------------|
|---3--------2-------7---------5------------|
|---3---5-3--2----6--7--10-9---5--2---------|
|---3---5-3--2----6--7--10-9---5--2---------|

|--------------------------|
|--------------------------|
|--------------------------|
|---3--------2-------7-----|
|---3---5-3--2----6--7-----|
|---3---5-3--2----6--7-----|


Verse 3
2:39

Nothing is palyed here


2:46
|--------------------------|
|--------------------------|
|--------------------------|
|--------------------------| 
|---7-7---7----7-7--7------|
|---7-7---7----7-7--7------|
    * *   *    * *  *

|--------------------------|
|--------------------------|
|--------------------------|
|--------------5---3-------| 
|---7-7---7----5---3-------|
|---7-7---7----5---3-------|
    * *   *    

Chorus/Main Riff  (repeat twice)
2:54

|---------------------------------|
|---------------------------------|
|---------------------------------|
|---7----7--9/10\9--7--10----7----|
|---7-77-7--7/8\\7--5--10----7----|
|---7-77-7-------------10----7----|

|---------------------------------|
|---------------------------------|
|---------------------------------|
|---7----7--10--7--5555--5/7------|
|---7-77-7--8---5--5555--5/7------|
|---7-77-7---------5555--5/7------|
                   ****                     

|---------------------------------|
|---------------------------------|
|---------------------------------|
|---7----7--9/10\9--7--10----7----|
|---7-77-7--7/8\\7--5--10----7----|
|---7-77-7-------------10----7----|

|---------------------------------|
|---------------------------------|
|---------------------------------|
|---7----7----9/10\9---3----------|
|---7-77-7----9/10\9---3----------|
|---7-77-7----9/10\9---3----------|


3:25
|---------------------------------|
|---------------------------------|
|---------------------------------|
|---7----7--3-3---0---5/7---------|
|---7-77-7--3-3---0---5/7---------|
|---7-77-7--3-3---0---5/7---------|

|---------------------------------|
|---------------------------------|
|---------------------------------|
|---7----7--3---3-5--5--5/7-------|
|---7-77-7--3---3-5--5--5/7-------|
|---7-77-7--3---3-5--5--5/7-------|
                   

|---------------------------------|
|---------------------------------|
|---------------------------------|
|---7----7--3-3---0---5/7---------|
|---7-77-7--3-3---0---5/7---------|
|---7-77-7--3-3---0---5/7---------|

|---------------------------------|
|---------------------------------|
|---------------------------------|
|---7----7------10-9---5------3---|
|---7-77-7------10-9---5------3---|
|---7-77-7------10-9---5------3---|






===========================================================================

Track 5                   Via the End

===========================================================================

By:  Deathstars
Album: Night Electric Night

Tabbed by: John Moores
mooresjw@email.uc.edu


Drop C Tuning (CGCFAD)

* = Palm Mute
@ = Pinched harmonic
x = muted

Main Riff
0:55

|---------------------------|
|---------------------------|
|---------------------------|
|--0-----7----6----------0--|
|--0-----7----6----1--3--0--|
|--0-----7----6----1--3--0--|
                   *  *

|---------------------------|
|---------------------------|
|---------------------------|
|--0-----7----8----11-------|
|--0-----7----8----11-------|
|--0-----7----8----11-------|



Verse
1:07

|---------------------------|
|---------------------------|
|-----Nothing played--------|
|----------here-------------|
|---------------------------|
|---------------------------|

1:30
|----------------------------|
|----------------------------|
|----------------------------|
|--8-------8----5-------5----|
|--8-------8----5-------5----|
|--8---8-8-8----5---5-5-5----|
       * *          * *
                                x2
|----------------------------|
|----------------------------|
|----------------------------|
|--0-------0----5---------7--|
|--0-------0----3---3-3---7--|
|--0---0-0-0--------------7--|
       * *          * *


Main Riff
2:05

Pick scratch leading into riff

|---------------------------|
|---------------------------|
|---------------------------|
|--0-----7----6----------0--|
|--0-----7----6----1--3--0--|
|--0-----7----6----1--3--0--|
                   *  *
                               x2
|---------------------------|
|---------------------------|
|---------------------------|
|--0-----7----8----11-------|
|--0-----7----8----11-------|
|--0-----7----8----11-------|


Verse
2:29

|---------------------------|
|---------------------------|
|-----Nothing played--------|
|----------here-------------|
|---------------------------|
|---------------------------|


Lead in
2:50
|-------------------|
|-------------------|
|-------------------|
|--5--5-------------|
|--5--5--5--7-------|
|--5--5--5--7-------|
         *  *  

|----------------------------|
|----------------------------|
|----------------------------|
|--8-------8----5-------5----|
|--8-------8----5-------5----|
|--8---8-8-8----5---5-5-5----|
       * *          * *
                                x4
|----------------------------|
|----------------------------|
|----------------------------|
|--0-------0----5---------7--|
|--0-------0----3---3-3---7--|
|--0---0-0-0--------------7--|
       * *          * *







===========================================================================

Track 6                   Blood Stains Blondes

===========================================================================

By:  Deathstars
Album: Night Electric Night

Tabbed by: John Moores
mooresjw@email.uc.edu

Tuning: Drop C (CGCFAD)

Legend: * = Palm Mute
        ~ = Let ring


Intro

0:06

|--------------------------------------------------------|
|--------------------------------------------------------|
|--------------------------------------------------------|
|--------------------------------------------------------|
|--------------------------------------------------------|
|----0-0--0-0---0-0--0----0-0--0-0--0-0--0---------------| 
     * *  * *   * *  *    * *  * *  * *  *

0:14                                                              
|-------------------------------------------------------------|    
|-------------------------------------------------------------|    
|-------------------------------------------------------------|    
|-------------------------------------------------------------|    
|---0-0-0-0-0-0-0-0--8-8-8-8-8-8-8-8--10-10-10-10-10-10-10-10-|    
|---0-0-0-0-0-0-0-0--8-8-8-8-8-8-8-8--10-10-10-10-10-10-10-10-|    
                                                                   
|-------------------------------------------------------------|      
|-------------------------------------------------------------|    
|-------------------------------------------------------------|    
|----5------3------2------------------------------------------|    
|----5------3------2------------------------------------------|    
|----5------3------2------------------------------------------|    
                                                                  
|-------------------------------------------------------------|    
|-------------------------------------------------------------|    
|-------------------------------------------------------------|    
|-------------------------------------------------------------|    
|---0-0-0-0-0-0-0-0--8-8-8-8-8-8-8-8--10-10-10-10-10-10-10-10-|    
|---0-0-0-0-0-0-0-0--8-8-8-8-8-8-8-8--10-10-10-10-10-10-10-10-|

|-------------------------------------------------------------|      
|-------------------------------------------------------------|    
|-------------------------------------------------------------|    
|----5--5--5--5-----------------------------------------------|    
|----5--5--5--5-----------------------------------------------|    
|----5--5--5--5-----------------------------------------------|    

Verse 1
0:28
|--------------------------------------------------------|
|--------------------------------------------------------|
|--------------------------------------------------------|
|--------------------------------------------------------|
|--------------------------------------------------------|
|--------------------------------------------------------|

Pre-chorus
0:56

|--------------------------------------------------------|
|--------------------------------------------------------|
|--------------------------------------------------------|
|----7---------5-----7-----------------------------------|
|----7---------5-----7-----------------------------------|
|----7----7-7--5-----7-----------------------------------|
          * *

Chorus
1:03

|-------------------------------------------------------------|    
|-------------------------------------------------------------|    
|-------------------------------------------------------------|    
|-------------------------------------------------------------|    
|---0-0-0-0-0-0-0-0--8-8-8-8-8-8-8-8--10-10-10-10-10-10-10-10-|    
|---0-0-0-0-0-0-0-0--8-8-8-8-8-8-8-8--10-10-10-10-10-10-10-10-|    
                                                                   
|-------------------------------------------------------------|      
|-------------------------------------------------------------|    
|-------------------------------------------------------------|    
|----5------3------2------------------------------------------|    
|----5------3------2------------------------------------------|    
|----5------3------2------------------------------------------|    
                                                                  
|-------------------------------------------------------------|    
|-------------------------------------------------------------|    
|-------------------------------------------------------------|    
|-------------------------------------------------------------|    
|---0-0-0-0-0-0-0-0--8-8-8-8-8-8-8-8--10-10-10-10-10-10-10-10-|    
|---0-0-0-0-0-0-0-0--8-8-8-8-8-8-8-8--10-10-10-10-10-10-10-10-|

|-------------------------------------------------------------|      
|-------------------------------------------------------------|    
|-------------------------------------------------------------|    
|----5--5--5--5-----------------------------------------------|    
|----5--5--5--5-----------------------------------------------|    
|----5--5--5--5-----------------------------------------------| 


Verse 2
1:18
|--------------------------------------------------------|
|--------------------------------------------------------|
|--------------------------------------------------------|
|--------------------------------------------------------|
|--------------------------------------------------------|
|--------------------------------------------------------|

1:32
|-------------------------------------------------------------|    
|-------------------------------------------------------------|    
|-------------------------------------------------------------|    
|-------------------------------------------------------------|    
|---0-0-0-0-0-0-0-0--8-8-8-8-8-8-8-8--10-10-10-10-10-10-10-10-|    
|---0-0-0-0-0-0-0-0--8-8-8-8-8-8-8-8--10-10-10-10-10-10-10-10-|
    * * * * * * * *  * * * * * * * *  *  *  *  *  *  *  *  *
|-------------------------------------------------------------|      
|-------------------------------------------------------------|    
|-------------------------------------------------------------|    
|----5--5--5--5-----------------------------------------------|    
|----5--5--5--5-----------------------------------------------|    
|----5--5--5--5-----------------------------------------------| 
     *  *  *  *

|-------------------------------------------------------------|    
|-------------------------------------------------------------|    
|-------------------------------------------------------------|    
|-------------------------------------------------------------|    
|---0-0-0-0-0-0-0-0--8-8-8-8-8-8-8-8--10-10-10-10-10-10-10-10-|    
|---0-0-0-0-0-0-0-0--8-8-8-8-8-8-8-8--10-10-10-10-10-10-10-10-|
    * * * * * * * *  * * * * * * * *  *  *  *  *  *  *  *  *
|-------------------------------------------------------------|      
|-------------------------------------------------------------|    
|-------------------------------------------------------------|    
|----7--7--7--7-----------------------------------------------|    
|----7--7--7--7-----------------------------------------------|    
|----7--7--7--7-----------------------------------------------| 
     *  *  *  *

Pre-chorus
1:46


Chorus
1:53


2:07
|--------------------------------------------------------|
|--------------------------------------------------------|
|--------------------------------------------------------|
|--------------------------------------------------------|   x4
|--------------------------------------------------------|
|----0-0--0-0---0-0--0----0-0--0-0--0-0--0-00------------| 
     * *  * *   * *  *    * *  * *  * *  * **

Pre-chorus
2:35

Chorus
2:42

Repeat twice

Intro
3:11



===========================================================================

Track 7                    Babylon

===========================================================================

By:  Deathstars
Album: Night Electric Night

Tabbed by: John Moores
mooresjw@email.uc.edu

Drop C Tuning (CGCFAD)

* = Palm Mute
@ = Pinched harmonic
x = muted

Intro/Main Riff
0:15

|-------------------------------------------|
|-------------------------------------------|
|---------4---------------------------------|
|--1---4--4---6------1----4--3-3-4--2-------|
|--1---4--2---6------1----4--3-3-2--2-------|
|--1---4------6------1----4--3-3----2-------|

|-------------------------------------------|
|-------------------------------------------|
|---------4---------------------------------|
|--1---4--4---6------1----4--3-3-4-4-4--4-4-|
|--1---4--2---6------1----4--3-3-2-2-2--2-2-|
|--1---4------6------1----4--3-3------------|


Verse 1
0:30

|-------------------------------------------------|
|-------------------------------------------------|
|----Nothing is played during---------------------|
|-----------this part-----------------------------|
|-------------------------------------------------|
|-------------------------------------------------|


0:45          0:48        0:52         0:56
|-------------------------------------------------|
|-------------------------------------------------|
|-------------------------------------------------|
|--1--1-------1--1--------1--1---------1--1-------|
|--1--1-------1--1--------1--1---------1--1-------|
|--1--1-------1--1--------1--1---------1--1-------|


Pre-chorus
0:58

|-------------------------------------------------|
|-------------------------------------------------|
|-------------------------------------------------|
|---6----9---11----6----8---9----11----6----8-----|
|---6--8-9---11----6----8---9----11----6----8-----|
|---6--8-9---11----6----8---9----11----6----8-----|



Chorus/Main Riff
1:14

|-------------------------------------------|
|-------------------------------------------|
|---------4---------------------------------|
|--1---4--4---6------1----4--3-3-4--2-------|
|--1---4--2---6------1----4--3-3-2--2-------|
|--1---4------6------1----4--3-3----2-------|
                                                  
|-----------------------------------------------|
|-----------------------------------------------|
|---------4-------------------------------------|
|--1---4--4---6------1----4--3-3-9--9---9---6---|
|--1---4--2---6------1----4--3-3-9--9---9-8-6---|
|--1---4------6------1----4--3-3-9--9---9-8-6---|


Verse
1:32

|-------------------------------------------------|
|-------------------------------------------------|
|----Nothing is played during---------------------|
|-----------this part-----------------------------|
|-------------------------------------------------|
|-------------------------------------------------|


1:46          1:50        1:54         1:58
|-------------------------------------------------|
|-------------------------------------------------|
|-------------------------------------------------|
|--1--1-------1--1--------1--1---------1--1-------|
|--1--1-------1--1--------1--1---------1--1-------|
|--1--1-------1--1--------1--1---------1--1-------|


Pre-chorus
2:00

|-------------------------------------------------|
|-------------------------------------------------|
|-------------------------------------------------|
|---6----9---11----6----8---9----11----6----8-----|
|---6--8-9---11----6----8---9----11----6----8-----|
|---6--8-9---11----6----8---9----11----6----8-----|


Chorus/Main Riff
2:17

|-------------------------------------------|
|-------------------------------------------|
|---------4---------------------------------|
|--1---4--4---6------1----4--3-3-4--2-------|
|--1---4--2---6------1----4--3-3-2--2-------|
|--1---4------6------1----4--3-3----2-------|
                                                  
|-----------------------------------------------|
|-----------------------------------------------|
|---------4-------------------------------------|
|--1---4--4---6------1----4--3-3-9--9---9---6---|
|--1---4--2---6------1----4--3-3-9--9---9-8-6---|
|--1---4------6------1----4--3-3-9--9---9-8-6---|


Bridge (continuous right from chorus)
|-------------------------------------------------|
|-------------------------------------------------|
|-------------------------------------------------|
|--8--9-8-7---8----6-4-3---8---9-8-7---8----------|
|--8--9-8-7---8----6-4-3---8---9-8-7---8----------|
|--8--9-8-7---8----6-4-3---8---9-8-7---8---4--3---|



Pre-chorus
3:02

|-----------------------|
|-----------------------|
|-----------------------|
|---9--11----6----8-----|  x2
|---9--11----6----8-----|
|---9--11----6----8-----|


3:28
|-------------------------------------------------|
|-------------------------------------------------|
|-------------------------------------------------|
|---1-3-4--3-4-6--4-6-8--8-9-11-\-----------------|
|---1-3-4--3-4-6--4-6-8--8-9-11-\-----------------|
|---1-3-4--3-4-6--4-6-8--8-9-11-\-----------------|


Chorus/Main Riff
3:32

|-------------------------------------------|
|-------------------------------------------|
|---------4---------------------------------|
|--1---4--4---6------1----4--3-3-4--2-------|
|--1---4--2---6------1----4--3-3-2--2-------|
|--1---4------6------1----4--3-3----2-------|
                                               
|-------------------------------------------|
|-------------------------------------------|
|---------4---------------------------------|
|--1---4--4---6------1----4--3-3-4-4-4--4-4-|
|--1---4--2---6------1----4--3-3-2-2-2--2-2-|
|--1---4------6------1----4--3-3------------|

|-------------------------------------------|
|-------------------------------------------|
|---------4---------------------------------|
|--1---4--4---6------1----4--3-3-4--2-------|
|--1---4--2---6------1----4--3-3-2--2-------|
|--1---4------6------1----4--3-3----2-------|

|-------------------------------------------|
|-------------------------------------------|
|---------4---------------------------------|
|--1---4--4---6------1----4--6-8-9---8-9--1-|
|--1---4--2---6------1----4--6-8-9---8-9--1-|
|--1---4------6------1----4--6-8-9---8-9--1-|




===========================================================================

Track 8                    The Fuel Ignites

===========================================================================

By:  Deathstars
Album: Night Electric Night

Tabbed by: John Moores
mooresjw@email.uc.edu


I wanted to make a special thanks to sabakunodaryl for tabbing this out.  
It was a pretty good tab, one or two errors, real minor.  This is my
interpretation.  So, again, thanks!


Tuning: Drop C (CGCFAD)

* = Palm Mute
@ = Pinched harmonic
x = muted

Intro 
0:20

|--------------------------------------------------------------------|
|--------------------------------------------------------------------|
|--------------------------------------------------------------------|
|---2--22--2--22--2222--22--7-2---3--33--3--33--3-555--55--5555------|  x2
|---0--00--0--00--0000--00--0-2---3--33--3--33--3-555--55--5555------|
|-----------------------------2---3--33--3--33--3-555--55--5555------|
       **     **        **           **     **        **



Verse 1
0:32

|--------------------------------------------|
|--------------------------------------------|
|----Nothing is played-----------------------|
|---------during the verse-------------------|
|--------------------------------------------|
|--------------------------------------------|

Pre-chorus 
1:00

|--------------------------------------------------------------------|
|--------------------------------------------------------------------|
|--------------------------------------------------------------------|
|---3--0-5--2--22-2-22-2222--22--2-2--3--0-5--2---22-----------------|
|---3--0-5--0--00-0-00-0000--00--0-2--3--0-5--2---22-----------------|
|---3--0-5-------------------------2--3--0-5--2---22-----------------|
               **   **       **               

Chorus 
1:14

|----------------------------------------------------|
|----------------------------------------------------|
|--2----------------------2--------------------------|
|--2----3---0----555555---2--3---0---5-5---5-5-------|
|--0----3---0----555555---0--3---0---5-5---5-5-------|
|-------3---0----555555------3---0---5-5---5-5-------|

Verse 2


|--------------------------------------------|
|--------------------------------------------|
|----Nothing is played-----------------------|
|---------during this part of the verse------|
|--------------------------------------------|
|--------------------------------------------|

1:42          1:49
|--------------------------------------------|
|--------------------------------------------|
|---2-------------2--------------------------|
|---2-------------2--------------------------|
|---0-------------0--------------------------|
|--------------------------------------------|
     

Pre-chorus
1:56

|--------------------------------------------------------------------|
|--------------------------------------------------------------------|
|--------------------------------------------------------------------|
|---3--0-5--2--22-2-22-2222--22--2-2--3--0-5--2---22-----------------|
|---3--0-5--0--00-0-00-0000--00--0-2--3--0-5--2---22-----------------|
|---3--0-5-------------------------2--3--0-5--2---22-----------------|
               **   **       ** 


Chorus
2:10

|----------------------------------------------------|
|----------------------------------------------------|
|--2----------------------2--------------------------|
|--2----3---0----555555---2--3---0---5-5---5-5-------|  x2
|--0----3---0----555555---0--3---0---5-5---5-5-------|
|-------3---0----555555------3---0---5-5---5-5-------|



Intro Riff
2:38


|--------------------------------------------------------------------|
|--------------------------------------------------------------------|
|--------------------------------------------------------------------|
|---2--22--2--22--2222--22--7-2---3--33--3--33--3-555--55--5555------|  x2
|---0--00--0--00--0000--00--0-2---3--33--3--33--3-555--55--5555------|
|-----------------------------2---3--33--3--33--3-555--55--5555------|
       **     **        **           **     **        **


Bridge
2:52

Keys only


Pre-chorus
3:05

|--------------------------------------------------------------------|
|--------------------------------------------------------------------|
|--------------------------------------------------------------------|
|---3--0-5--2--22-2-22-2222--22--2-2--3--0-5--2---22-----------------|
|---3--0-5--0--00-0-00-0000--00--0-2--3--0-5--2---22-----------------|
|---3--0-5-------------------------2--3--0-5--2---22-----------------|
               **   **       **              


Chorus
3:19

|----------------------------------------------------|
|----------------------------------------------------|
|--2----------------------2--------------------------|
|--2----3---0----555555---2--3---0---5-5---5-5-------|  x2
|--0----3---0----555555---0--3---0---5-5---5-5-------|
|-------3---0----555555------3---0---5-5---5-5-------|

===========================================================================

Track 9                    Arclight

===========================================================================

By:  Deathstars
Album: Night Electric Night

Tabbed by: John Moores
mooresjw@email.uc.edu

Drop C Tuning (CGCFAD)

* = Palm Mute
@ = Pinched harmonic
x = muted

Intro/Main Riff
0:24

|------------------------------|
|------------------------------|
|------------------------------|
|-------7/8\7------7-8-7\5-----|  x4
|--0-0--5/6\5--0-0-5-6-5\3-----|
|--0-0---------0-0-0-----------|
   * *         * *

Verse
0:34
|------------------------------------------------------|
|------------------------------------------------------|
|------Nothing is played-------------------------------|
|-------------------during this part-------------------|
|------------------------------------------------------|
|------------------------------------------------------|

Pre-chorus
0:55

|------------------------------|
|------------------------------|
|------------------------------|
|-------7/8\7------7-8-7\5-----|  x4
|--0-0--5/6\5--0-0-5-6-5\3-----|
|--0-0---------0-0-0-----------|
   * *         * *

Chorus
1:05

|------------------------------------------------------------|
|------------------------------------------------------------|
|------------------------------------------------------------|
|---5----8-------3--/8--7--5--3---5---8-------3---5--5---5-3-|
|---5----8-7-5---3--/6--5--3--1---5---8-7-5---3---3--3---3-1-|
|---5----8-7-5---3----------------5---8-7-5---3--------------|
                                                               
|------------------------------------------------------------|
|------------------------------------------------------------|
|------------------------------------------------------------|
|---5----8-------3--/8--7--5--3---5---8-------3---5--5---5-7-|
|---5----8-7-5---3--/6--5--3--1---5---8-7-5---3---3--3---3-5-|
|---5----8-7-5---3----------------5---8-7-5---3--------------|

Post-Chorus
1:27

|------------------------------|     |--------------------|
|------------------------------|     |--------------------|
|------------------------------|     |--------------------|
|-------7/8\7------7-8-7\5-----| x3  |--7-7-----7-7-------|
|--0-0--5/6\5--0-0-5-6-5\3-----|     |--5-5-----5-5-------|
|--0-0---------0-0-0-----------|     |--------------------|
   * *         * *


Verse
1:37
|------------------------------------------------------|
|------------------------------------------------------|
|------Nothing is played-------------------------------|
|-------------------during this part-------------------|
|------------------------------------------------------|
|------------------------------------------------------|


Pre-chorus
1:58

|------------------------------|
|------------------------------|
|------------------------------|
|-------7/8\7------7-8-7\5-----|  x4
|--0-0--5/6\5--0-0-5-6-5\3-----|
|--0-0---------0-0-0-----------|
   * *         * *

Chorus
2:08

|------------------------------------------------------------|
|------------------------------------------------------------|
|------------------------------------------------------------|
|---5----8-------3--/8--7--5--3---5---8-------3---5--5---5-3-|
|---5----8-7-5---3--/6--5--3--1---5---8-7-5---3---3--3---3-1-|
|---5----8-7-5---3----------------5---8-7-5---3--------------|
                                                               
|------------------------------------------------------------|
|------------------------------------------------------------|
|------------------------------------------------------------|
|---5----8-------3--/8--7--5--3---5---8-------3---5--5---5-7-|
|---5----8-7-5---3--/6--5--3--1---5---8-7-5---3---3--3---3-5-|
|---5----8-7-5---3----------------5---8-7-5---3--------------|


Bridge
2:29

|---------------------------------------------------|
|---------------------------------------------------|
|---------------------------------------------------|
|---1---1-1---5---5---5-----5------5----3------3----|
|---1---1-1---3---3---3-----5--5---5----3--3---3----|
|---1---1-1-----------------5--5---5----3--3---3----|

|--------------------------|
|--------------------------|
|--------------------------|
|---1---1-1---5---5---5----|
|---1---1-1---3---3---3----|
|---1---1-1----------------|


2:45

|------------------------------|
|------------------------------|
|------------------------------|
|-------7/8\7------7-8-7\5-----|  x2
|--0-0--5/6\5--0-0-5-6-5\3-----|
|--0-0---------0-0-0-----------|
   * *         * *



Chorus
3:11

|------------------------------------------------------------|
|------------------------------------------------------------|
|------------------------------------------------------------|
|---5----8-------3--/8--7--5--3---5---8-------3---5--5---5-3-|
|---5----8-7-5---3--/6--5--3--1---5---8-7-5---3---3--3---3-1-|
|---5----8-7-5---3----------------5---8-7-5---3--------------|
                                                               x2
|------------------------------------------------------------|
|------------------------------------------------------------|
|------------------------------------------------------------|
|---5----8-------3--/8--7--5--3---5---8-------3---5--5---5-7-|
|---5----8-7-5---3--/6--5--3--1---5---8-7-5---3---3--3---3-5-|
|---5----8-7-5---3----------------5---8-7-5---3--------------|


3:53
|------------------------------------------------------------|
|------------------------------------------------------------|
|------------------------------------------------------------|
|---5--7-8-------3--/8--7--5--3---5-7-8-------3---5--5---5-3-|  x2
|---5--7-8-7-5---3--/6--5--3--1---5-7-8-7-5---3---3--3---3-1-|
|---5--7-8-7-5---3----------------5-7-8-7-5---3--------------|




===========================================================================

Track 10                   Venus in Arms

===========================================================================

By:  Deathstars
Album: Night Electric Night

Tabbed by: John Moores
mooresjw@email.uc.edu

Drop C Tuning (CGCFAD)

* = Palm Mute
@ = Pinched harmonic
x = muted

Intro/Main Riff

0:20
Pick scratch

0:22

|-------------------------------------------------|
|-------------------------------------------------|
|-------------------------------------------------|
|---3---5-6--8----8-8-----------3---5-6---8---8---|
|---3---5-6--8----8-8---6-5--3--3---5-6---6---8---|
|---3---5-6--8----8-8---6-5--3--3---5-6-------8---|



Verse
0:45

|------------------------------------------|
|------------------------------------------|
|----Nothing is played---------------------|
|------------during this part--------------|
|------------------------------------------|
|------------------------------------------|


1:00
|------------------------------|
|------------------------------|
|--------------------3---------|
|---3----6-----1-----3---------| x2
|---3----6-----1-----1---------|
|---3----6-----1---------------|


Pre-chorus
1:18

|-----------------------|
|-----------------------|
|-----------------------|
|--8---6---5---3--------|
|--6---4---3---1---6----|
|------------------6----|

Chorus
1:22

|-------------------------------------------------|
|-------------------------------------------------|
|-------------------------------------------------|
|---3---5-6--8----8-8-----------3---5-6---8---8---|
|---3---5-6--8----8-8---6-5--3--3---5-6---6---8---|
|---3---5-6--8----8-8---6-5--3--3---5-6-------8---|


Verse
1:37

|------------------------------------------|
|------------------------------------------|
|----Nothing is played---------------------|
|------------during this part--------------|
|------------------------------------------|
|------------------------------------------|


1:52
|------------------------------|
|------------------------------|
|--------------------3---------|
|---3----6-----1-----3---------| x2
|---3----6-----1-----1---------|
|---3----6-----1---------------|


Pre-chorus
2:11

|-----------------------|
|-----------------------|
|-----------------------|
|--8---6---5---3--------|
|--6---4---3---1---6----|
|------------------6----|

Chorus
2:15

|-------------------------------------------------|
|-------------------------------------------------|
|-------------------------------------------------|
|---3---5-6--8----8-8-----------3---5-6---8---8---|  x2
|---3---5-6--8----8-8---6-5--3--3---5-6---6---8---|
|---3---5-6--8----8-8---6-5--3--3---5-6-------8---|



Bridge
2:52

|----------------------------------------------|-----|
|----------------------------------------------|-----|
|-----------------------------------------5----|-----|
|--6--6-4-3-3/5--3-5-6---6-5-3--3--5------5----|--3--|
|--4--4-3-1-1/3--1-3-4---4-3-1--1--5----5-3----|--3--|
|----------------------------------5----5------|--3--|
      * *        * *     * * 


Chorus
3:22

|-------------------------------------------------|
|-------------------------------------------------|
|-------------------------------------------------|
|---3---5-6--8----8-8-----------3---5-6---8---8---|  x2
|---3---5-6--8----8-8---6-5--3--3---5-6---6---8---|
|---3---5-6--8----8-8---6-5--3--3---5-6-------8---|


Ending
3:52

|---------------------------|
|---------------------------|
|---------------------------|
|--6---6-5-3---3---3--------|
|--4---4-3-1---1---3--------|
|------------------3--------|
       * *



===========================================================================

Track 11                    Opium

===========================================================================

By:  Deathstars
Album: Night Electric Night

Tabbed by: John Moores
mooresjw@email.uc.edu

Tuning: Drop C (CGCFAD)

Legend: * = Palm mute


Intro

0:10
|--------------------------------------------------|
|--------------------------------------------------|
|--------------------------------------------------|
|--2--2-----2----2---2--2------2----2---2--2-------|
|--2--2-----2----2---2--2------2----2---2--2-------|
|--2--2-----2----2---2--2------2----2---2--2-------|


|--------------------------------------------------|
|--------------------------------------------------|
|--------------------------------------------------|
|--2---2----0--0--------7--7-----------------------|
|--2---2----0--0--------7--7-----------------------|
|--2---2----0--0----0---7--7-----------------------|
                    *

|--------------------------------------------------|
|--------------------------------------------------|
|--------------------------------------------------|
|--2--2-----2----2---2--2------2----2---2--2-------|
|--2--2-----2----2---2--2------2----2---2--2-------|
|--2--2-----2----2---2--2------2----2---2--2-------|

|--------------------------------------------------|
|--------------------------------------------------|
|--------------------------------------------------|
|--2---2----0------5-------------------------------|
|--2---2----0------3-------------------------------|
|--2---2----0--------------------------------------|


Verse 1

0:31
|--------------------------------------------------|
|--------------------------------------------------|
|--------------------------------------------------|
|--------------------------------------------------|
|--------------------------------------------------|
|--------------------------------------------------|


Chorus (main riff)

1:11                                                    _
|--------------------------------------------------|     |
|--------------------------------------------------|     |
|--------------------------------------------------|     |
|--2--2-----2----2---2--2------2----2---2--2-------|     |
|--2--2-----2----2---2--2------2----2---2--2-------|     |
|--2--2-----2----2---2--2------2----2---2--2-------|     |
                                                         |
                                                         |
|--------------------------------------------------|     |
|--------------------------------------------------|     |
|--------------------------------------------------|     |
|--2---2----0--0--------7--7-----------------------|     |
|--2---2----0--0--------7--7-----------------------|     |
|--2---2----0--0----0---7--7-----------------------|     |
                    *                                    |
                                                         |
|--------------------------------------------------|     |
|--------------------------------------------------|     |
|--------------------------------------------------|     |
|--2--2-----2----2---2--2------2----2---2--2-------|     |
|--2--2-----2----2---2--2------2----2---2--2-------|     |
|--2--2-----2----2---2--2------2----2---2--2-------|     |
                                                         |
|--------------------------------------------------|     |
|--------------------------------------------------|     |
|--------------------------------------------------|     |
|--2---2----0------5~~~----------------------------|     |
|--2---2----0------3~~~----------------------------|     |
|--2---2----0--------------------------------------|    _|



Verse 2

1:34
|--------------------------------------------------|
|--------------------------------------------------|
|--------------------------------------------------|
|--------------------------------------------------|
|--------------------------------------------------|
|--------------------------------------------------|


Chorus

2:16                                                    _
|--------------------------------------------------|     |
|--------------------------------------------------|     |
|--------------------------------------------------|     |
|--2--2-----2----2---2--2------2----2---2--2-------|     |
|--2--2-----2----2---2--2------2----2---2--2-------|     |
|--2--2-----2----2---2--2------2----2---2--2-------|     |
                                                         |
                                                         |
|--------------------------------------------------|     |
|--------------------------------------------------|     |
|--------------------------------------------------|     |
|--2---2----0--0--------7--7-----------------------|     |
|--2---2----0--0--------7--7-----------------------|     |
|--2---2----0--0----0---7--7-----------------------|     |
                    *                                    |
                                                         |
|--------------------------------------------------|     |
|--------------------------------------------------|     |
|--------------------------------------------------|     |
|--2--2-----2----2---2--2------2----2---2--2-------|     |
|--2--2-----2----2---2--2------2----2---2--2-------|     |
|--2--2-----2----2---2--2------2----2---2--2-------|     |
                                                         |
|--------------------------------------------------|     |
|--------------------------------------------------|     |
|--------------------------------------------------|     |
|--2---2----0------5~~~----------------------------|     |
|--2---2----0------3~~~----------------------------|     |
|--2---2----0--------------------------------------|    _|



Bridge

2:36
|--------------------------------------------------|
|--------------------------------------------------|
|--------------------------------------------------|
|--------------------------------------------------|
|--------------------------------------------------|
|--------------------------------------------------|



2:54
|--------------------------------------------------|
|--------------------------------------------------|
|--------------------------------------------------|
|----7~------5~~-----------------------------------|
|----5~------3~~-----------------------------------|
|----0~--------------------------------------------|


2:56                                                    _
|--------------------------------------------------|     |
|--------------------------------------------------|     |
|--------------------------------------------------|     |
|--2--2-----2----2---2--2------2----2---2--2-------|     |
|--2--2-----2----2---2--2------2----2---2--2-------|     |
|--2--2-----2----2---2--2------2----2---2--2-------|     |
                                                         |
                                                         |
|--------------------------------------------------|     |
|--------------------------------------------------|     |
|--------------------------------------------------|     |
|--2---2----0--0--------7--7-----------------------|     |
|--2---2----0--0--------7--7-----------------------|     |
|--2---2----0--0----0---7--7-----------------------|     |--x3
                    *                                    |
                                                         |
|--------------------------------------------------|     |
|--------------------------------------------------|     |
|--------------------------------------------------|     |
|--2--2-----2----2---2--2------2----2---2--2-------|     |
|--2--2-----2----2---2--2------2----2---2--2-------|     |
|--2--2-----2----2---2--2------2----2---2--2-------|     |
                                                         |
|--------------------------------------------------|     |
|--------------------------------------------------|     |
|--------------------------------------------------|     |
|--2---2----0------5~~~----------------------------|     |
|--2---2----0------3~~~----------------------------|     |
|--2---2----0--------------------------------------|    _|



Finish with this

|--------------------------------------------------|     
|--------------------------------------------------|    
|--------------------------------------------------|     
|--2--2-----2----2---2--2------2----2---2--2-------|    
|--2--2-----2----2---2--2------2----2---2--2-------|     
|--2--2-----2----2---2--2------2----2---2--2-------|   
                                                        
                                                         
|--------------------------------------------------|
|--------------------------------------------------|
|--------------------------------------------------|
|----2--2---2--2------7~-------5~~-----------------|
|----2--2---2--2------5~-------3~~-------0h2\------|
|----2--2---2--2------0~-----------------0h2\------|




If you've made it down this far, haha, please rate and comment!  Thanks!
Tap to rate this tab
 
# A B C D E F G H I J K L M N O P Q R S T U V W X Y Z