Deathstars - Motherzone tab

-------------------------------------------------------------------------------
                             Deathstars - Motherzone
-------------------------------------------------------------------------------
Tabbed by:       MartinMessner
Email:           bigbonsai@hotmail.de
song on youtube: *

Tuning:          E - Standard

//////////////////////////////////////////////
//                                          //
//  RATING THIS TAB TAKES ABOUT 5 SECONDS   //
//  AND HELPS ME TO IMPROVE MY WORK         //
//                                          //
//////////////////////////////////////////////



NOTE: Practically the whole tab is palm-muted!

[Intro]
synth
e|----3--5-----1-------3--5-----1----|
B|-1--------4-------1--------4-------|
G|-----------------------------------|
D|-----------------------------------|
A|-----------------------------------|
E|-----------------------------------|(loops)


e|-------------------------1---------4-3-3-|
B|---1-4-1-1---1-4-1-1---1---1-1---1-------|
G|-3---------3---------3---------3---------|
D|-----------------------------------------|
A|-----------------------------------------|
E|-----------------------------------------|(in 2nd time)
(both reappear in the chorus)


Guitar
e|-----------------------------------|
B|-----------------------------------|
G|--\5-5-5-5-9-9-9-9-11111111--------|
D|--\5-5-5-5-9-9-9-9-111111119-9-9-9-|
A|--\3-3-3-3-7-7-7-7-9-9-9-9-9-9-9-9-|
E|---------------------------7-7-7-7-|


e|-----------------------------------|
B|-----------------------------------|
G|-----------------------------------|
D|--5-5-5-5-9-9-9-9-111111116-6-6-6--|
A|--3-3-3-3-7-7-7-7-9-9-9-9-4-4-4-4--|
E|-----------------------------------|

...

[Verse]


e|------------------------|
B|------------------------|
G|--5----9----5-----------|
D|--5----9----5-----------|
A|--3~---7~---3~----------|
E|------------------------|

(later strummed)

...

[PreChorus]

e|----------------------------|
B|----------------------------|
G|------4-5-----------8-8-8---|
D|--6---4-5--8--6--3--8-8-8---|
A|--6---2-3--8--6--3--6-6-5---|
E|--4--------6--4--1----------|
...

[Chorus]

e|----------------------------------|
B|----------------------------------|
G|--5-5-5-5-----------------3-3-3-3-|
D|--5-5-5-5-6-6-6-6-3-3-3-3-3-3-3-3-|
A|--3-3-3-3-6-6-6-6-3-3-3-3-1-1-1-1-|
E|----------4-4-4-4-1-1-1-1---------|

e|----------------------------------|
B|----------------------------------|
G|--5-5-5-5-----------------6-6-6-6-|
D|--5-5-5-5-6-6-6-6-3-3-3-3-6-6-6-6-|
A|--3-3-3-3-6-6-6-6-3-3-3-3-4-4-4-4-|
E|----------4-4-4-4-1-1-1-1---------|

...
[Bridge]

e|------------------|
B|------------------|
G|--3---------------|
D|--3---6---4---3---|
A|--1---6---4---3---|
E|------4---2---1---|x4

e|------------------|
B|------------------|
G|--5---------------|
D|--5---8---6---5---|
A|--3---8---6---5---|
E|------6---4---3---|x2

Martin Messner
Tap to rate this tab
 
# A B C D E F G H I J K L M N O P Q R S T U V W X Y Z