Song name
# A B C D E F G H I J K L M N O P Q R S T U V W X Y Z

Deathstars - Cyanide tab

Please do not flame saying it is DROP D OR DROP C!!!!! Because it is not according to 
the Song writer (Nightmare Industries).

(NOTE important:
Deathstars do not use DROP TUNINGS! Watch them play cyanide live and see Nightmares fingers.
Watch the music video where he says Now drink the cyanide!! Look at his fingers again)

Nightmare industries also said so himself that they do not use drop tuning. But they use 
C tuning and sometimes B tuning.

P.S You can play this song in Drop C,Drop D if you prefer that, but this is the version 
they use. I think it is accurate I'm not sure about the Bridge. Also the 553 part you 
play it twice.
Play it and wait for a second then play it again then continue!


-------------------------------------------------------------------------------
			     Cyanide - DeathStars
-------------------------------------------------------------------------------
Tabbed by: Skinny N Bonez
Email: ( I dont want to share =/)

Tuning: C tuning - C -  C-F-A♯-D♯-G-C

Intro
Cyanide.....
0:16
|------------------------------------------------|
|------------------------------------------------|
|------------------------------------------------|
|---7-7---7-7---5-5---5-5---7--7----7--7---------| x2
|---7-7---7-7---5-5---5-5---5--5----5--5---------|
|---5-5---5-5---3-3---3-3------------------------|
    * *   * *   * *   * *   *  *    *
0:30
Drink the cyanide!!!!!
|--------------------------------|
|--------------------------------|
|--------------------------------|
|-7------10-9-5------7-----------|
|-7------10-9-5------5-----------|
|-5------8--7-3------------------|

|--------------------------------|
|--------------------------------|
|--------------------------------|
|-10-9-7-------10-9-5---7----9/10|
|-10-9-7-------10-9-5---5----9/10|
|-8--7-5-------8--7-3--------7/8-|

Verse 1
0:46
|--------------------------------------------------|
|--------------------------------------------------|
|--------------------------------------------------|
|--------------------------------------------------|
|--------------------------------------------------|
|--------------------------------------------------|

1:01
|-------------------------------|
|-------------------------------|
|-------------------------------|
|-7-----5-----7-----------------| 2x
|-7-----5-----5-----------------|
|-5-----3-----------------------|

Chorus
1:19
|--------------------------------|
|--------------------------------|
|--------------------------------|
|-7------10-9-5------7-----------|
|-7------10-9-5------5-----------|
|-5------8--7-3------------------|

|--------------------------------|
|--------------------------------|
|--------------------------------|
|-10-9-7-------10-9-5---7----9/10|
|-10-9-7-------10-9-5---5----9/10|
|-8--7-5-------8--7-3--------7/8-|


Verse 2
1:35
|--------------------------------------------------|
|--------------------------------------------------|
|------Nothing played------------------------------|
|--------------------------------------------------|
|--------------------------------------------------|
|--------------------------------------------------|

1:49
|-------------------------------|
|-------------------------------|
|-------------------------------|
|-7-----5-----7-----------------| 2x
|-7-----5-----5-----------------|
|-5-----3-----------------------|

Chorus 4x
2:08
|--------------------------------|
|--------------------------------|
|--------------------------------|
|-7------10-9-5------7-----------|
|-7------10-9-5------5-----------|
|-5------8--7-3------------------|

|--------------------------------|
|--------------------------------|
|--------------------------------|
|-10-9-7-------10-9-5---7--------|
|-10-9-7-------10-9-5---5--------|
|-8--7-5-------8--7-3------------|

Bridge
2:38
|---------------------------------------|
|---------------------------------------|
|--------------------------------7-7-7-7|
|-10-10-10-10-10-10--7--7--7--7--7-7-7-7|
|-10-10-10-10-10-10--7--7--7--7--5-5-5-5|
|-8--8--8--8--8--8---10-10-10-10--------|

Intro
2:53
|------------------------------------------------|
|------------------------------------------------|
|------------------------------------------------|
|---7-7---7-7---5-5---5-5---7--7----7--7---------| x2
|---7-7---7-7---5-5---5-5---5--5----5--5---------|
|---5-5---5-5---3-3---3-3------------------------|

Chorus 4x
3:22
|--------------------------------|
|--------------------------------|
|--------------------------------|
|-7------10-9-5------7-----------|
|-7------10-9-5------5-----------|
|-5------8--7-3------------------|

|--------------------------------|
|--------------------------------|
|--------------------------------|
|-10-9-7-------10-9-5---7--------|
|-10-9-7-------10-9-5---5--------|
|-8--7-5-------8--7-3------------|

Outro
3:37
|---------------------------|
|---------------------------|
|---------------------------|
|-10-10-10-10---7--7--7--7--|
|-10-10-10-10---7--7--7--7--|
|-8--8--8--8----10-10-10-10-|
Tap to rate this tab
 
# A B C D E F G H I J K L M N O P Q R S T U V W X Y Z