Song name
# A B C D E F G H I J K L M N O P Q R S T U V W X Y Z

Deathstars - Metal tab

Metal by Deathstars

Tabbed by Doctor Vacuum

Tuning Drop C: CGCFAD


Tab Legend:

PM... - palm mute
( ) - optional
b - bend
TP - tremolo picking
[ ] - ring it out



INTRO / CHORUS

D|--------------------------------------------------|
A|-------------------------------------------13TP---|
F|--------------------------------------------------|
C|----------0--3--5--6--5--3--0--3--10-10-10--------|
G|---(20/3)-0--3--5--6--5--3--0--3--10-10-10--------|
C|---(20/3)-0--3--5--6--5--3--0--3--10-10-10--------|



RIFF 1

D|-----------------------------------------------------------|
A|-----------------------------------------------------------|
F|-----------------------------------------------------------|
C|--12--13--12--10--12--12--12--13--10--12--13--12--10--12---|
G|--12--13--12--10--12--12--12--13--10--12--13--12--10--12---|
C|--12--13--12--10--12--12--12--13--10--12--13--12--10--12---|


D|---------------|
A|---------------|
F|---------------|
C|--3--5--3------|
G|--3--5--3------|
C|--3--5--3--3b--|



RIFF 2

D|--------------------------------------------|
A|--------------------------------------------|
F|--------------------------------------------|
C|--------------------------------------------|
G|-0-0-0-0-0-0...-1--0--0-0...-3--0-0-0...----|
C|-0-0-0-0-0-0...-1--0--0-0...-3--0-0-0...----|
PM............|         |....|   |......      |



BRIDGE

D|-------------------------------------------|
A|-------------------------------------------|
F|-------------------------------------------|
C|-------------------------------------------|
G|----8----5----10----7----8----5---10---7-7-|
C|----8----5----10----7----8----5---10---7-7-|



OUTRO

D|-----------------------------------------------------|
A|-----------------------------------------------------|
F|-----------------------------------------------------|
C|-----------------------------------------------------|
G|----8----5----10----7----8----5---10---7-7------[0]--|
C|----8----5----10----7----8----5---10---7-7------[0]--|
Tap to rate this tab
 
# A B C D E F G H I J K L M N O P Q R S T U V W X Y Z