Song name
# A B C D E F G H I J K L M N O P Q R S T U V W X Y Z

Deathstars - Semi-automatic tab

Band: Deathstars                      /=Slide Up
Song: Semi-Automatic                  Deathstars.net
Album: Synthetic Generation
Tuning: Drop C (C-G-C-F-A-D)

Riff 1
|--------------------------------------------------------------------|
|--------------------------------------------------------------------|
|--------------------------------------------------------------------|
|-6-6-6-6-6-6-6-6-2-2-2-2-7-7-7-7-6-6-6-6-6-6-6-6---------7-7-7-7----|
|-4-4-4-4-4-4-4-4-0-0-0-0-5-5-5-5-4-4-4-4-4-4-4-4-4-4-4-4-5-5-5-5----|
|-------------------------------------------------4-4-4-4------------|

Verse-(Played with Bass & Keyboards only)

Riff 2
|------------------------------------------------------------------------|
|------------------------------------------------------------------------|
|------------------------------------------------------------------------|
|-6-6-4/6--6-6-4/6--4-4-4-4-----7-7--6-6-4/6--6-6-4/6--4-4-4-4-----7-7---|
|-4-4-2/4--4-4-2/4--2-2-2-2-4-4-5-5--4-4-2/4--4-4-2/4--2-2-2-2-4-4-5-5---|
|---------------------------4-4--------------------------------4-4-------|

|--------------------------------------------------------------------|
|--------------------------------------------------------------------|
|--------------------------------------------------------------------|
|-6-6-4/6--6-6-4/6--4-4-4-4-----7-7--6-6-4/6--6-6-4/6--4-4-4-4-------|
|-4-4-2/4--4-4-2/4--2-2-2-2-4-4-5-5--4-4-2/4--4-4-2/4--2-2-2-2-4~----|
|---------------------------4-4--------------------------------4~----|

Riff 1
|--------------------------------------------------------------------|
|--------------------------------------------------------------------|
|--------------------------------------------------------------------|
|-6-6-6-6-6-6-6-6-2-2-2-2-7-7-7-7-6-6-6-6-6-6-6-6---------7-7-7-7----|
|-4-4-4-4-4-4-4-4-0-0-0-0-5-5-5-5-4-4-4-4-4-4-4-4-4-4-4-4-5-5-5-5----|
|-------------------------------------------------4-4-4-4------------|

Verse-(Played with Bass & Keyboards only)

Riff 2
|------------------------------------------------------------------------|
|------------------------------------------------------------------------|
|------------------------------------------------------------------------|
|-6-6-4/6--6-6-4/6--4-4-4-4-----7-7--6-6-4/6--6-6-4/6--4-4-4-4-----7-7---|
|-4-4-2/4--4-4-2/4--2-2-2-2-4-4-5-5--4-4-2/4--4-4-2/4--2-2-2-2-4-4-5-5---|
|---------------------------4-4--------------------------------4-4-------|

|--------------------------------------------------------------------|
|--------------------------------------------------------------------|
|--------------------------------------------------------------------|
|-6-6-4/6--6-6-4/6--4-4-4-4-----7-7--6-6-4/6--6-6-4/6--4-4-4-4-------|
|-4-4-2/4--4-4-2/4--2-2-2-2-4-4-5-5--4-4-2/4--4-4-2/4--2-2-2-2-4~----|
|---------------------------4-4--------------------------------4~----|

Riff 1
|--------------------------------------------------------------------|
|--------------------------------------------------------------------|
|--------------------------------------------------------------------|
|-6-6-6-6-6-6-6-6-2-2-2-2-7-7-7-7-6-6-6-6-6-6-6-6---------7-7-7-7----|
|-4-4-4-4-4-4-4-4-0-0-0-0-5-5-5-5-4-4-4-4-4-4-4-4-4-4-4-4-5-5-5-5----|
|-------------------------------------------------4-4-4-4------------|

Verse-(Keyboards)

Riff 3
|------------------------------------------------------------|
|------------------------------------------------------------|
|------------------------------------------------------------|
|-6-6--6-6-6--6-6-6--6-6-6--6--------------------------------|
|-4-4--4-4-4--4-4-4--4-4-4--4--2-2--2-2-2--2--4-4--4--4-4----|
|------------------------------2-2--2-2-2--2--4-4--4--4-4----|

|------------------------------------------------------------|
|------------------------------------------------------------|
|------------------------------------------------------------|
|-6-6--6-6-6--6-6-6--6-6-6--6--2-2--2-2-2--2-----------------|
|-4-4--4-4-4--4-4-4--4-4-4--4--0-0--0-0-0--0--4-4--4--4-4----|
|---------------------------------------------4-4--4--4-4----|


Riff 1
|--------------------------------------------------------------------|
|--------------------------------------------------------------------|
|--------------------------------------------------------------------|
|-6-6-6-6-6-6-6-6-2-2-2-2-7-7-7-7-6-6-6-6-6-6-6-6---------7-7-7-7----|
|-4-4-4-4-4-4-4-4-0-0-0-0-5-5-5-5-4-4-4-4-4-4-4-4-4-4-4-4-5-5-5-5----|
|-------------------------------------------------4-4-4-4------------|

Riff 4
|---------------|
|---------------|
|---------------|
|-3--2----------|
|-1--0--1--0----|
|-------1--0----|

Tap to rate this tab
# A B C D E F G H I J K L M N O P Q R S T U V W X Y Z