Song name
# A B C D E F G H I J K L M N O P Q R S T U V W X Y Z

Deathwish - Break The Chains tab

-------------------------------------------------------------------------------
                      BREAK THE CHAINS - Deathwish
-------------------------------------------------------------------------------

By: David Bostijn     David.Bostijn@pi.be

e|---------------------------------------------------------------------------|
B|---------------------------------------------------------------------------|
G|---------------------------------------------------------------------------|
D|-----5--10-9-10-9--7-------------------------------------------------------|
A|--7--3---8-7--8-7--5-------------------------------------------------------|
E|--5------------------------------------------------------------------------|

e|---------------------------------------------------------------------------|
B|---------------------------------------------------------------------------|
G|---------------------------------------------------------------------------|
D|--5--10--7-----------------------------------------------------------------|
A|--3---8--5-----------------------------------------------------------------|
E|---------------------------------------------------------------------------|

e|---------------------------------------------------------------------------|
B|---------------------------------------------------------------------------|
G|---------------------------------------------------------------------------|
D|-----5--10-9-10-9----------------------------------------------------------|
A|--7--3---8-7--8-7----------------------------------------------------------|
E|--5------------------------------------------------------------------------|

 That's it, listen to the song when to play each part and how many times to 
 hit each chord!! It's rather easy...

===============================================================================
Tap to rate this tab
# A B C D E F G H I J K L M N O P Q R S T U V W X Y Z