Deathwish - Feel The Beating tab

really fast galloping lick

there are 3 guitars in this song.

lead
rythym
and baritone.

all three guitarist play this
0s are palm muted except for opening chord
E---------------------------------------------------------------------------|
B---------------------------------------------------------------------------|
G---------------------------------------------------------------------------|
D-0~-------5-3---------3-2---------2-0---------5-3---------3-2---------2-0--|
A-0~------------------------------------------------------------------------|
D-0~000-000-0-0-000-000-0-0-000-000-0-0-000-000-0-0-000-000-0-0-000-000-0-0-|

E---------------------------------------------------------------------------|
B---------------------------------------------------------------------------|
G---------------------------------------------------------------------------|
D------------------------5-3---------3-2---------0-2------------------------|
A---------------------------------------------------------------------------|
D-000-000-000-000-000-000-0-0-000-000-0-0-000-000-0-000-000-000-000-000-000-|

E---------------------------------------------------------------------------|
B---------------------------------------------------------------------------|
G---------------------------------------------------------------------------|
D-0~------------------------------------------------------------------------|
A-0~------------------------------------------------------------------------|
D-0~------------------------------------------------------------------------|

4 count

E---------------------------------------------------------------------------|
B---------------------------------------------------------------------------|
G---------------------------------------------------------------------------|
D-/\-0~---------5p0-3p0-----------3p0-2p0-----------2p0-0-------------------|
A-/\-0~---------5p0-3p0-----------3p0-2p0-----------2p0-0-------------------|
D-/\-0~-000-000-5p0-3p0-0-000-000-3p0-2p0-0-000-000-2p0-0-0-000-000-000-000-|

E---------------------------------------------------------------------------|
B---------------------------------------------------------------------------|
G---------------------------------------------------------------------------|
D---------5p0-3p0-----------3p0-2p0-----------2p0-0-------------------------|
A---------5p0-3p0-----------3p0-2p0-----------2p0-0-------------------------|
D-000-000-5p0-3p0-0-000-000-3p0-2p0-0-000-000-2p0-0-000-000-000-000-000-000-|

GUITAR I

E---------------------------------------------------------------------------|
B---------------------------------------------------------------------------|
G---------------------------------------------------------------------------|
D-x\------------------------------------------------------------------------|
A-x\------------------------------------------------------------------------|
D-x\------------------------------------------------------------------------|


GUITAR II


E---------------------------------------------------------------------------|
B---------------------------------------------------------------------------|
G---------------------------------------------------------------------------|
D---------------------------------------------------------------------------|
A---------------------------------------------------------------------------|
D-000-000-000-000-000-000-000-000-000-000-000-000-000-000-000-000-000-000---|


GUITAR III


E---------------------------------------------------------------------------|
B---------------------------------------------------------------------------|
G---------------------------------------------------------------------------|
D---------------------------------------------------------------------------|
A---------------------------------------------------------------------------|
D-000-000-000-000-000-000-000-000-000-000-000-000-000-000-000-000-000-000---|


verse 1

GUITAR I
                                                                          x8
E---------------------------------------------------------------------------|
B---------------------------------------------------------------------------|
G---------------------------------------------------------------------------|
D-0~-------------------------------3-2-3-5-3-2-0-0~-------------------------|
A-0~---------------------------------------------0~-------------------------|
D-0~-0-0-0-0-0-0-0-0-0-0-0-0-0-0-0---------------0~-0-0-0-0-0-0-0-0-0-0-0-0-|


GUITAR II
                                                                          x8

E---------------------------------------------------------------------------|
B---------------------------------------------------------------------------|
G---------------------------------------------------------------------------|
D-0~---------------------------------------------0~-------------------------|
A-0~---------------------------------------------0~-------------------------|
D-0~-0-0-0-0-0-0-0-0-0-0-0-0-0-0-0-3-2-3-5-3-2-0-0~-0-0-0-0-0-0-0-0-0-0-0-0-|


GUITAR III

                                                                         x8
E---------------------------------------------------------------------------|
B---------------------------------------------------------------------------|
G---------------------------------------------------------------------------|
D-0~---------------------------------------------0~-------------------------|
A-0~---------------------------------------------0~-------------------------|
D-0~-0-0-0-0-0-0-0-0-0-0-0-0-0-0-0-0-0-0-0-0-0-0-0~-0-0-0-0-0-0-0-0-0-0-0-0-|


pre chorus
All three parts.                                                         x2

E---------------------------------------------------------------------------|
B---------------------------------------------------------------------------|
G---------------------------------------------------------------------------|
D-3p0-0-5p0-0-3p0-3p0-0-5p0-0-3p0-3p0-5p0-3p0-7p0-5p0-3p0-2p0-0-------------|
A-3p0-0-5p0-0-3p0-3p0-0-5p0-0-3p0-3p0-5p0-3p0-7p0-5p0-3p0-2p0-0-------------|
D-3p0-0-5p0-0-3p0-3p0-0-5p0-0-3p0-3p0-5p0-3p0-7p0-5p0-3p0-2p0-0-------------|

Chorus


All three parts

                                                         X2 top and bottom
E---------------------------------------------------------------------------|
B---------------------------------------------------------------------------|
G---------------------------------------------------------------------------|
D-0~-----3p0-----5p0-----7~-7-7-7p0-5p0-3p0-2p0-0~-----2p0-0-0-3p0-0-0-5~---|
A-0~-----3p0-----5p0-----7~-7-7-7p0-5p0-3p0-2p0-0~-----2p0-0-0-3p0-0-0-5~---|
D-0~-0-0-3p0-0-0-5p0-0-0-7~-7-7-7p0-5p0-3p0-2p0-0~-0-0-2p0-0-0-3p0-0-0-5~---|

E---------------------------------------------------------------------------|
B---------------------------------------------------------------------------|
G---------------------------------------------------------------------------|
D-5-5-5p0-3p0-2p0-0~--------------------------------------------------------|
A-5-5-5p0-3p0-2p0-0~--------------------------------------------------------|
D-5-5-5p0-3p0-2p0-0~--------------------------------------------------------|

interlude./solo

                                                               x4 interlude
E---------------------------------------------------------------------------|
B---------------------------------------------------------------------------|
G---------------------------------------------------------------------------|
D-0~-------------------------------------------------3p0---5p0---3p2p0------|
A-0~-------------------------------------------------3p0---5p0---3p2p0------|
D-0~-0-0-0-0-0-0-0-0-0-0-0-0-0-0-0-0-0-0-0-0-0-0-0-0-3p0-0-5p0-0-3p2p0------|


solo

wah

E------10h13-----10h13-----10h13-----10h13-15-13-10-------------------------|
B-10h13-----10h13-----10h13-----10h13--------------10-13-10-13-13b15-13b15--|
G---------------------------------------------------------------------------|
D---------------------------------------------------------------------------|
A---------------------------------------------------------------------------|
D---------------------------------------------------------------------------|


E---------------------------------------------------------------------------|
B-13b15~--------------------------------------------------------------------|
G----------------------10h12-12b14-12b14-12~-10-12-10-----------------------|
D-----------------10h12------------------------------12-10-----------10b12--|
A------------10h12----------------------------------------15-12-15-12-------|
D-------12h15---------------------------------------------------------------|


E--------------15b17~-10-13-10------------------------10-13-10--------------|
B-----------------------------13-10-13-10-13-10-13b15~--------13-10---------|
G------------------------------------------------------------------12-10----|
D-10b12-10b12~--------------------------------------------------------------|
A---------------------------------------------------------------------------|
D---------------------------------------------------------------------------|


E----------------------------------------------17-13------13-17-13------13--|
B--------------------13-10-13b15-13b15-13b15-15-----15--15--------15--15----|
G-12-10---------10-12---------------------------------14------------14------|
D------12-12-12~------------------------------------------------------------|
A---------------------------------------------------------------------------|
D---------------------------------------------------------------------------|

E-17-13------13-17------13-18------13-18-13------13-18------13-18------13---|
B------15--15-----15--15-----15--15--------15--15-----15--15-----15--15-----|
G--------14---------14---------14------------14---------14---------14-------|
D---------------------------------------------------------------------------|
A---------------------------------------------------------------------------|
D---------------------------------------------------------------------------|


E-22-19------19-22-19------19-22-19------19-22-19------19-22-19------19-22~-|
B------20--20--------20--20--------20--20--------20--20--------20--20-------|
G--------19------------19------------19------------19------------19---------|
D---------------------------------------------------------------------------|
A---------------------------------------------------------------------------|
D---------------------------------------------------------------------------|


4 count outro

GUITARS I AND II

E---------------------------------------------------------------------------|
B---------------------------------------------------------------------------|
G---------------------------------------------------------------------------|
D-12\-----------------------------------------------------------------------|
A-12\-----------------------------------------------------------------------|
D-12\-----------------------------------------------------------------------|


E---------------------------------------------------------------------------|
B---------------------------------------------------------------------------|
G---------------------------------------------------------------------------|
D-0-------------------------------------------------------------------------|
A-0-------------------------------------------------------------------------|
D-0-------------------------------------------------------------------------|
Tap to rate this tab
 
# A B C D E F G H I J K L M N O P Q R S T U V W X Y Z