Song name
# A B C D E F G H I J K L M N O P Q R S T U V W X Y Z

Deathwish - Tailgate tab

-------------------------------------------------------------------------------
                            TAILGATE - Deathwish
-------------------------------------------------------------------------------

By: David Bostijn   David.bostijn@pi.be

e|---------------------------------------------------------------------------|
B|---------------------------------------------------------------------------|
G|---------------------------------------------------------------------------|
D|---------------------------------------------------------------------------|
A|--2-2-2--8-8-8-8--5-5-5--7-7-7-7-------------------------------------------|
E|--0-0-0--6-6-6-6--3-3-3--5-5-5-5-------------------------------------------|

e|---------------------------------------------------------------------------|
B|---------------------------------------------------------------------------|
G|---------------------------------------------------------------------------|
D|---------------------------------------------------------------------------|
A|---2-2-2-2--8-8-8-8--2-2-2-2--7-7-7-7--------------------------------------|
E|---0-0-0-0--6-6-6-6--0-0-0-0--5-5-5-5--------------------------------------|

  Play this part very fast!!

===============================================================================
Tap to rate this tab
 
# A B C D E F G H I J K L M N O P Q R S T U V W X Y Z